  0
SECTION
  2
HEADER
  9
$ACADVER
  1
AC1009
  9
$INSBASE
 10
12417.124437017999
 20
632.97540336391057
 30
0.0
  9
$EXTMIN
 10
4204.6939914825516
 20
-2834.8922934334551
 30
0.0
  9
$EXTMAX
 10
17170.34040615879
 20
3557.8450544704428
 30
0.0
  9
$LIMMIN
 10
0.0
 20
0.0
  9
$LIMMAX
 10
420.0
 20
297.0
  9
$ORTHOMODE
 70
     1
  9
$REGENMODE
 70
     1
  9
$FILLMODE
 70
     1
  9
$QTEXTMODE
 70
     0
  9
$MIRRTEXT
 70
     1
  9
$DRAGMODE
 70
     2
  9
$LTSCALE
 40
500.0
  9
$OSMODE
 70
    44
  9
$ATTMODE
 70
     1
  9
$TEXTSIZE
 40
2.5
  9
$TRACEWID
 40
1.0
  9
$TEXTSTYLE
  7
STANDARD
  9
$CLAYER
  8
DIMENSION
  9
$CELTYPE
  6
BYLAYER
  9
$CECOLOR
 62
   256
  9
$DIMSCALE
 40
1500.0
  9
$DIMASZ
 40
0.18
  9
$DIMEXO
 40
0.0625
  9
$DIMDLI
 40
0.38
  9
$DIMRND
 40
0.0
  9
$DIMDLE
 40
0.0
  9
$DIMEXE
 40
0.14
  9
$DIMTP
 40
0.0
  9
$DIMTM
 40
0.0
  9
$DIMTXT
 40
0.18
  9
$DIMCEN
 40
0.09
  9
$DIMTSZ
 40
0.0
  9
$DIMTOL
 70
     0
  9
$DIMLIM
 70
     0
  9
$DIMTIH
 70
     0
  9
$DIMTOH
 70
     0
  9
$DIMSE1
 70
     0
  9
$DIMSE2
 70
     0
  9
$DIMTAD
 70
     1
  9
$DIMZIN
 70
     0
  9
$DIMBLK
  1

  9
$DIMASO
 70
     1
  9
$DIMSHO
 70
     1
  9
$DIMPOST
  1

  9
$DIMAPOST
  1

  9
$DIMALT
 70
     0
  9
$DIMALTD
 70
     2
  9
$DIMALTF
 40
25.399999999999999
  9
$DIMLFAC
 40
1.0
  9
$DIMTOFL
 70
     1
  9
$DIMTVP
 40
0.0
  9
$DIMTIX
 70
     0
  9
$DIMSOXD
 70
     0
  9
$DIMSAH
 70
     0
  9
$DIMBLK1
  1

  9
$DIMBLK2
  1

  9
$DIMSTYLE
  2
STANDARD
  9
$DIMCLRD
 70
     0
  9
$DIMCLRE
 70
     0
  9
$DIMCLRT
 70
     0
  9
$DIMTFAC
 40
1.0
  9
$DIMGAP
 40
0.05
  9
$LUNITS
 70
     2
  9
$LUPREC
 70
     4
  9
$SKETCHINC
 40
1.0
  9
$FILLETRAD
 40
10.0
  9
$AUNITS
 70
     0
  9
$AUPREC
 70
     0
  9
$MENU
  1
.
  9
$ELEVATION
 40
0.0
  9
$PELEVATION
 40
0.0
  9
$THICKNESS
 40
0.0
  9
$LIMCHECK
 70
     0
  9
$BLIPMODE
 70
     0
  9
$CHAMFERA
 40
10.0
  9
$CHAMFERB
 40
10.0
  9
$SKPOLY
 70
     0
  9
$TDCREATE
 40
2454165.6815858218
  9
$TDUPDATE
 40
2455575.6473390399
  9
$TDINDWG
 40
0.083567338
  9
$TDUSRTIMER
 40
0.083567338
  9
$USRTIMER
 70
     1
  9
$ANGBASE
 50
0.0
  9
$ANGDIR
 70
     0
  9
$PDMODE
 70
     0
  9
$PDSIZE
 40
0.0
  9
$PLINEWID
 40
0.0
  9
$COORDS
 70
     0
  9
$SPLFRAME
 70
     0
  9
$SPLINETYPE
 70
     6
  9
$SPLINESEGS
 70
     8
  9
$ATTDIA
 70
     0
  9
$ATTREQ
 70
     1
  9
$HANDLING
 70
     1
  9
$HANDSEED
  5
46E
  9
$SURFTAB1
 70
     6
  9
$SURFTAB2
 70
     6
  9
$SURFTYPE
 70
     6
  9
$SURFU
 70
     6
  9
$SURFV
 70
     6
  9
$UCSNAME
  2

  9
$UCSORG
 10
0.0
 20
0.0
 30
0.0
  9
$UCSXDIR
 10
1.0
 20
0.0
 30
0.0
  9
$UCSYDIR
 10
0.0
 20
1.0
 30
0.0
  9
$PUCSNAME
  2

  9
$PUCSORG
 10
0.0
 20
0.0
 30
0.0
  9
$PUCSXDIR
 10
1.0
 20
0.0
 30
0.0
  9
$PUCSYDIR
 10
0.0
 20
1.0
 30
0.0
  9
$USERI1
 70
     0
  9
$USERI2
 70
     0
  9
$USERI3
 70
     0
  9
$USERI4
 70
     0
  9
$USERI5
 70
     0
  9
$USERR1
 40
0.0
  9
$USERR2
 40
0.0
  9
$USERR3
 40
0.0
  9
$USERR4
 40
0.0
  9
$USERR5
 40
0.0
  9
$WORLDVIEW
 70
     1
  9
$SHADEDGE
 70
     3
  9
$SHADEDIF
 70
    70
  9
$TILEMODE
 70
     1
  9
$MAXACTVP
 70
    64
  9
$PLIMCHECK
 70
     0
  9
$PEXTMIN
 10
0.0
 20
0.0
 30
0.0
  9
$PEXTMAX
 10
0.0
 20
0.0
 30
0.0
  9
$PLIMMIN
 10
0.0
 20
0.0
  9
$PLIMMAX
 10
12.0
 20
9.0
  9
$UNITMODE
 70
     0
  9
$VISRETAIN
 70
     1
  9
$PLINEGEN
 70
     0
  9
$PSLTSCALE
 70
     1
  0
ENDSEC
  0
SECTION
  2
TABLES
  0
TABLE
  2
VPORT
 70
     2
  0
VPORT
  2
*ACTIVE
 70
     0
 10
0.0
 20
0.0
 11
1.0
 21
1.0
 12
10507.858665522541
 22
157.7128187943635
 13
0.0
 23
0.0
 14
10.0
 24
10.0
 15
10.0
 25
10.0
 16
0.0
 26
0.0
 36
1.0
 17
0.0
 27
0.0
 37
0.0
 40
10302.1949013375
 41
1.6793478260869561
 42
50.0
 43
0.0
 44
0.0
 50
0.0
 51
0.0
 71
     0
 72
   100
 73
     1
 74
     1
 75
     0
 76
     0
 77
     0
 78
     0
  0
ENDTAB
  0
TABLE
  2
LTYPE
 70
     3
  0
LTYPE
  2
CONTINUOUS
 70
     0
  3
Solid line
 72
    65
 73
     0
 40
0.0
  0
LTYPE
  2
CENTER
 70
     0
  3
____ _ ____ _ ____ _ ____ _ ____ _ ____ _ ____ 
 72
    65
 73
     4
 40
2.0
 49
1.25
 49
-0.25
 49
0.25
 49
-0.25
  0
LTYPE
  2
DASHED2
 70
     0
  3
_ _ _ _ _ _ _ _ _ _ _ _ _ _ _ _ _ _ _ _ _ _ _ _
 72
    65
 73
     2
 40
0.375
 49
0.25
 49
-0.125
  0
ENDTAB
  0
TABLE
  2
LAYER
 70
     7
  0
LAYER
  2
0
 70
     0
 62
     7
  6
CONTINUOUS
  0
LAYER
  2
CENTER
 70
     0
 62
     6
  6
CENTER
  0
LAYER
  2
HONTAIGAIKEI
 70
     0
 62
     2
  6
CONTINUOUS
  0
LAYER
  2
DOUSEN
 70
     0
 62
     3
  6
CONTINUOUS
  0
LAYER
  2
DIMENSION
 70
     0
 62
     1
  6
CONTINUOUS
  0
LAYER
  2
HASEN
 70
     0
 62
     9
  6
DASHED2
  0
LAYER
  2
TLINE
 70
     0
 62
     1
  6
CONTINUOUS
  0
ENDTAB
  0
TABLE
  2
STYLE
 70
     1
  0
STYLE
  2
STANDARD
 70
     0
 40
0.0
 41
1.0
 50
0.0
 71
     0
 42
2.5
  3
txt.shx
  4
extfont2.shx
  0
ENDTAB
  0
TABLE
  2
VIEW
 70
     0
  0
ENDTAB
  0
TABLE
  2
UCS
 70
     0
  0
ENDTAB
  0
TABLE
  2
APPID
 70
     7
  0
APPID
  2
ACAD
 70
     0
  0
APPID
  2
RAK
 70
     0
  0
APPID
  2
ACAD_DSTYLE_DIMJOGGED_JOGA
 70
     0
  0
APPID
  2
ACAD_DSTYLE_DIMEXT_ENABLED
 70
     0
  0
APPID
  2
ACAD_DSTYLE_DIMEXT_LENGTH
 70
     0
  0
APPID
  2
ACAD_DSTYLE_DIMARC_LENGTH_
 70
     0
  0
APPID
  2
ACAECLAYERSTANDARD
 70
     0
  0
ENDTAB
  0
TABLE
  2
DIMSTYLE
 70
     1
  0
DIMSTYLE
  2
STANDARD
 70
     0
  3

  4

  5

  6

  7

 40
1500.0
 41
0.18
 42
0.0625
 43
0.38
 44
0.14
 45
0.0
 46
0.0
 47
0.0
 48
0.0
140
0.18
141
0.09
142
0.0
143
25.399999999999999
144
1.0
145
0.0
146
1.0
147
0.05
 71
     0
 72
     0
 73
     0
 74
     0
 75
     0
 76
     0
 77
     1
 78
     0
170
     0
171
     2
172
     1
173
     0
174
     0
175
     0
176
     0
177
     0
178
     0
  0
ENDTAB
  0
ENDSEC
  0
SECTION
  2
BLOCKS
  0
BLOCK
  8
0
  2
$MODEL_SPACE
 70
     0
 10
0.0
 20
0.0
 30
0.0
  3
$MODEL_SPACE
  1

  0
ENDBLK
  5
C
  8
0
  0
BLOCK
 67
     1
  8
0
  2
$PAPER_SPACE
 70
     0
 10
0.0
 20
0.0
 30
0.0
  3
$PAPER_SPACE
  1

  0
ENDBLK
  5
11
 67
     1
  8
0
  0
ENDSEC
  0
SECTION
  2
ENTITIES
  0
LINE
  5
34
  8
CENTER
 10
6017.1244370180111
 20
-344.89229343345511
 30
0.0
 11
6017.1244370180111
 21
-2834.8922934334551
 31
0.0
  0
LINE
  5
37
  8
CENTER
 10
4204.6939914825516
 20
-1589.8922934334551
 30
0.0
 11
16931.058327207051
 21
-1589.8922934334551
 31
0.0
  0
LINE
  5
38
  8
HONTAIGAIKEI
 10
4887.1244370180102
 20
-2834.8922934334551
 30
0.0
 11
6582.1244370180129
 21
-2834.8922934334551
 31
0.0
  0
LINE
  5
3A
  8
HONTAIGAIKEI
 10
4887.1244370180102
 20
-344.89229343345511
 30
0.0
 11
6582.1244370180129
 21
-344.89229343345511
 31
0.0
  0
ARC
  5
3B
  8
HONTAIGAIKEI
 10
6782.124437018012
 20
-2734.892293433456
 30
0.0
 40
100.0
 50
180.0
 51
270.0
  0
ARC
  5
3C
  8
HONTAIGAIKEI
 10
6782.124437018012
 20
-444.892293433455
 30
0.0
 40
100.0
 50
90.0
 51
180.0
  0
ARC
  5
3D
  8
HONTAIGAIKEI
 10
6582.1244370180129
 20
-2734.892293433456
 30
0.0
 40
100.0
 50
270.0
 51
0.0
  0
ARC
  5
3E
  8
HONTAIGAIKEI
 10
6582.1244370180129
 20
-444.892293433455
 30
0.0
 40
100.0
 50
0.0
 51
90.0
  0
LINE
  5
3F
  8
HONTAIGAIKEI
 10
6682.124437018012
 20
-2734.892293433456
 30
0.0
 11
6682.124437018012
 21
-444.892293433455
 31
0.0
  0
LINE
  5
40
  8
HONTAIGAIKEI
 10
16472.526387110411
 20
-2834.8922934334551
 30
0.0
 11
6782.124437018012
 21
-2834.8922934334551
 31
0.0
  0
LINE
  5
41
  8
HONTAIGAIKEI
 10
6782.124437018012
 20
-344.89229343345511
 30
0.0
 11
16472.526387110291
 21
-344.89229343345511
 31
0.0
  0
LINE
  5
42
  8
CENTER
 10
11767.124437017999
 20
-344.89229343345511
 30
0.0
 11
11767.124437017999
 21
-2834.8922934334551
 31
0.0
  0
LINE
  5
43
  8
CENTER
 10
13067.124437017999
 20
-344.89229343345511
 30
0.0
 11
13067.124437017999
 21
-2834.8922934334551
 31
0.0
  0
LINE
  5
44
  8
HONTAIGAIKEI
 10
16472.526387110411
 20
-2834.8922934334551
 30
0.0
 11
16577.12443701801
 21
-2735.0634175321611
 31
0.0
  0
LINE
  5
45
  8
HONTAIGAIKEI
 10
16472.526387110291
 20
-344.89229343345511
 30
0.0
 11
16577.12443701801
 21
-444.72116933474888
 31
0.0
  0
LINE
  5
46
  8
HONTAIGAIKEI
 10
16577.12443701801
 20
-2735.0634175321611
 30
0.0
 11
16577.12443701801
 21
-444.72116933474888
 31
0.0
  0
ARC
  5
47
  8
HONTAIGAIKEI
 10
4887.1244370180102
 20
-2534.8922934334551
 30
0.0
 40
300.0
 50
180.0
 51
270.0
  0
ARC
  5
48
  8
HONTAIGAIKEI
 10
4887.1244370180102
 20
-644.89229343345505
 30
0.0
 40
300.0
 50
90.0
 51
180.0
  0
LINE
  5
49
  8
HONTAIGAIKEI
 10
4587.1244370180102
 20
-2534.8922934334551
 30
0.0
 11
4587.1244370180102
 21
-644.89229343345505
 31
0.0
  0
LINE
  5
4A
  8
HONTAIGAIKEI
 10
6817.1244370180029
 20
-2834.8922934334551
 30
0.0
 11
6817.1244370180029
 21
-344.89229343345511
 31
0.0
  0
LINE
  5
4B
  8
DOUSEN
 62
     3
 10
4224.128714559628
 20
632.97540336390819
 30
0.0
 11
17170.34040615879
 21
632.97540336391194
 31
0.0
  0
LINE
  5
4D
  8
CENTER
 10
6017.124437018002
 20
1897.0296718652789
 30
0.0
 11
6017.124437018002
 21
468.92113486254402
 31
0.0
  0
LINE
  5
4E
  8
CENTER
 10
11767.124437017999
 20
1897.0296718652789
 30
0.0
 11
11767.12443701799
 21
468.92113486254402
 31
0.0
  0
LINE
  5
4F
  8
CENTER
 10
13067.124437017999
 20
1897.0296718652789
 30
0.0
 11
13067.124437017999
 21
468.921134862543
 31
0.0
  0
LINE
  5
50
  8
HONTAIGAIKEI
 10
4587.1244370180102
 20
1462.975403363911
 30
0.0
 11
4587.1244370180102
 21
1292.9754033639069
 31
0.0
  0
CIRCLE
  5
51
  8
HONTAIGAIKEI
 10
6017.1244370180111
 20
1182.975403363909
 30
0.0
 40
550.0
  0
CIRCLE
  5
52
  8
TLINE
 10
6017.1244370180111
 20
1182.975403363909
 30
0.0
 40
325.0
  0
CIRCLE
  5
55
  8
TLINE
 10
6017.1244370180111
 20
1182.975403363909
 30
0.0
 40
290.0
  0
CIRCLE
  5
56
  8
TLINE
 10
11767.124437017999
 20
1182.9754033639099
 30
0.0
 40
290.0
  0
CIRCLE
  5
57
  8
TLINE
 10
11767.124437017999
 20
1182.9754033639099
 30
0.0
 40
325.0
  0
CIRCLE
  5
58
  8
HONTAIGAIKEI
 10
11767.124437017999
 20
1182.9754033639099
 30
0.0
 40
550.0
  0
CIRCLE
  5
59
  8
TLINE
 10
13067.124437017999
 20
1182.975403363911
 30
0.0
 40
290.0
  0
CIRCLE
  5
5A
  8
TLINE
 10
13067.124437017999
 20
1182.975403363911
 30
0.0
 40
325.0
  0
CIRCLE
  5
5B
  8
HONTAIGAIKEI
 10
13067.124437017999
 20
1182.975403363911
 30
0.0
 40
550.0
  0
LINE
  5
5C
  8
CENTER
 10
5400.4663775604313
 20
1182.975403363909
 30
0.0
 11
6633.7824964755891
 21
1182.975403363909
 31
0.0
  0
LINE
  5
5D
  8
CENTER
 10
11133.089012173479
 20
1182.9754033639119
 30
0.0
 11
12401.15986186253
 21
1182.9754033639081
 31
0.0
  0
LINE
  5
5E
  8
CENTER
 10
12424.829820046651
 20
1182.975403363911
 30
0.0
 11
13709.41905398935
 21
1182.975403363911
 31
0.0
  0
LINE
  5
5F
  8
CENTER
 10
12417.124437017999
 20
1840.0403281537001
 30
0.0
 11
12417.124437017999
 21
468.921134862543
 31
0.0
  0
LINE
  5
60
  8
HONTAIGAIKEI
 10
6817.1244370180029
 20
3532.9754033639192
 30
0.0
 11
6817.1244370180029
 21
2037.9754033639149
 31
0.0
  0
LINE
  5
61
  8
HONTAIGAIKEI
 10
6717.1244370180038
 20
3532.9754033639192
 30
0.0
 11
6717.1244370180038
 21
2037.975403363919
 31
0.0
  0
LINE
  5
62
  8
HONTAIGAIKEI
 10
6717.1244370180038
 20
3532.9754033639151
 30
0.0
 11
6817.1244370179957
 21
3532.9754033639151
 31
0.0
  0
LINE
  5
63
  8
HONTAIGAIKEI
 10
5128.061087867889
 20
3452.975403363911
 30
0.0
 11
6459.0651210137903
 21
3452.9754033639069
 31
0.0
  0
LINE
  5
64
  8
HONTAIGAIKEI
 10
6682.1244370180184
 20
2602.9754033639178
 30
0.0
 11
6682.1244370180102
 21
1882.975403363911
 31
0.0
  0
LINE
  5
65
  8
TLINE
 10
6708.1926287071801
 20
1102.9754033639181
 30
0.0
 11
9708.7765963956444
 21
1102.9754033639181
 31
0.0
  0
LINE
  5
66
  8
TLINE
 10
6682.1244370180102
 20
1142.9754033639069
 30
0.0
 11
9708.7765963956444
 21
1142.975403363911
 31
0.0
  0
LINE
  5
67
  8
TLINE
 10
6682.1244370180102
 20
1182.975403363911
 30
0.0
 11
9708.7765963956444
 21
1182.975403363911
 31
0.0
  0
LINE
  5
68
  8
TLINE
 10
6682.1244370180102
 20
1222.975403363914
 30
0.0
 11
9708.7765963956444
 21
1222.975403363914
 31
0.0
  0
LINE
  5
69
  8
TLINE
 10
6682.1244370180102
 20
1332.9754033639069
 30
0.0
 11
9708.7765963956444
 21
1332.9754033639069
 31
0.0
  0
LINE
  5
6A
  8
TLINE
 10
6682.1244370180102
 20
1372.975403363911
 30
0.0
 11
9708.7765963956444
 21
1372.975403363911
 31
0.0
  0
LINE
  5
6B
  8
TLINE
 10
6682.1244370180102
 20
1412.975403363911
 30
0.0
 11
11117.124437017999
 21
1412.975403363911
 31
0.0
  0
LINE
  5
6C
  8
TLINE
 10
6682.1244370180102
 20
1452.9754033639149
 30
0.0
 11
9708.7765963956444
 21
1452.9754033639149
 31
0.0
  0
ARC
  5
6D
  8
TLINE
 10
6682.1244370180102
 20
1122.975403363914
 30
0.0
 40
20.0
 50
90.0
 51
270.0
  0
ARC
  5
6E
  8
TLINE
 10
6682.1244370180102
 20
1162.975403363911
 30
0.0
 40
20.0
 50
90.0
 51
270.0
  0
ARC
  5
6F
  8
TLINE
 10
6682.1244370180102
 20
1202.9754033639149
 30
0.0
 40
20.0
 50
90.0
 51
270.0
  0
ARC
  5
70
  8
TLINE
 10
6682.1244370180102
 20
1352.975403363911
 30
0.0
 40
20.0
 50
90.0
 51
270.0
  0
ARC
  5
71
  8
TLINE
 10
6682.1244370180102
 20
1392.975403363911
 30
0.0
 40
20.0
 50
90.0
 51
270.0
  0
ARC
  5
72
  8
TLINE
 10
6682.1244370180102
 20
1432.975403363911
 30
0.0
 40
20.0
 50
90.0
 51
270.0
  0
LINE
  5
73
  8
HONTAIGAIKEI
 10
7157.124437018002
 20
1748.587259010696
 30
0.0
 11
7157.124437018002
 21
1452.9754033639149
 31
0.0
  0
LINE
  5
74
  8
HONTAIGAIKEI
 10
7117.1244370180029
 20
1332.9754033639069
 30
0.0
 11
7117.1244370180029
 21
1222.975403363914
 31
0.0
  0
LINE
  5
75
  8
HONTAIGAIKEI
 10
7157.124437018002
 20
1332.975403363911
 30
0.0
 11
7157.124437018002
 21
1222.975403363914
 31
0.0
  0
LINE
  5
76
  8
HONTAIGAIKEI
 10
7117.1244370180029
 20
1748.587259010696
 30
0.0
 11
7117.1244370180029
 21
1452.9754033639149
 31
0.0
  0
LINE
  5
77
  8
HONTAIGAIKEI
 10
5013.3676068212553
 20
3368.265705224414
 30
0.0
 11
4787.1244370180102
 21
2632.975403363911
 31
0.0
  0
LINE
  5
78
  8
HONTAIGAIKEI
 10
4842.628982761812
 20
1232.975403363911
 30
0.0
 11
5364.9659627518604
 21
1232.9754033639181
 31
0.0
  0
LINE
  5
79
  8
HONTAIGAIKEI
 10
5632.7192967063856
 20
2632.975403363911
 30
0.0
 11
6717.1244370180111
 21
2632.9754033639151
 31
0.0
  0
LINE
  5
7A
  8
HONTAIGAIKEI
 10
5199.5368293823667
 20
3262.975403363911
 30
0.0
 11
6617.2768550112487
 21
3262.9754033639178
 31
0.0
  0
LINE
  5
7B
  8
HONTAIGAIKEI
 10
6682.1244370180102
 20
2602.9754033639151
 30
0.0
 11
6682.1244370180102
 21
1832.975403363911
 31
0.0
  0
LINE
  5
7C
  8
HONTAIGAIKEI
 10
5632.7192967063856
 20
2602.9754033639151
 30
0.0
 11
6717.1244370180111
 21
2602.9754033639151
 31
0.0
  0
LINE
  5
7D
  8
HONTAIGAIKEI
 10
4645.2330858908208
 20
2202.9754033639069
 30
0.0
 11
5050.8253361523784
 21
2202.9754033639069
 31
0.0
  0
LINE
  5
7E
  8
HONTAIGAIKEI
 10
4998.0370129546536
 20
3318.4412751579912
 30
0.0
 11
5176.2179748492526
 21
3257.2047038700621
 31
0.0
  0
ARC
  5
7F
  8
HONTAIGAIKEI
 10
5128.061087867889
 20
3332.975403363911
 30
0.0
 40
120.0
 50
90.0
 51
162.8972710310149
  0
LINE
  5
80
  8
HONTAIGAIKEI
 10
4857.1244370180102
 20
1472.975403363911
 30
0.0
 11
4857.1244370180102
 21
1282.9754033639069
 31
0.0
  0
LINE
  5
81
  8
HONTAIGAIKEI
 10
4617.1244370180102
 20
1262.9754033639069
 30
0.0
 11
4837.1244370180102
 21
1262.9754033639069
 31
0.0
  0
LINE
  5
82
  8
HONTAIGAIKEI
 10
4617.1244370180102
 20
1492.975403363911
 30
0.0
 11
4837.1244370180102
 21
1492.975403363911
 31
0.0
  0
ARC
  5
83
  8
HONTAIGAIKEI
 10
4617.1244370180102
 20
1462.975403363911
 30
0.0
 40
30.0
 50
90.0
 51
180.0
  0
ARC
  5
84
  8
HONTAIGAIKEI
 10
4617.1244370180102
 20
1292.9754033639069
 30
0.0
 40
30.0
 50
180.0
 51
270.0
  0
ARC
  5
85
  8
HONTAIGAIKEI
 10
4837.1244370180102
 20
1472.975403363911
 30
0.0
 40
20.0
 50
0.0
 51
90.0
  0
ARC
  5
86
  8
HONTAIGAIKEI
 10
4837.1244370180102
 20
1282.9754033639069
 30
0.0
 40
20.0
 50
270.0
 51
0.0
  0
LINE
  5
87
  8
HONTAIGAIKEI
 10
4805.7159470618544
 20
1262.9754033639069
 30
0.0
 11
4842.628982761812
 21
1232.975403363911
 31
0.0
  0
LINE
  5
88
  8
HONTAIGAIKEI
 10
4646.1463733357778
 20
1832.975403363911
 30
0.0
 11
4875.394330697879
 21
1832.9754033639149
 31
0.0
  0
LINE
  5
89
  8
HONTAIGAIKEI
 10
4666.1463733357696
 20
1902.9754033639031
 30
0.0
 11
6682.1244370180102
 21
1902.9754033639069
 31
0.0
  0
LINE
  5
8A
  8
HONTAIGAIKEI
 10
4645.2330858908208
 20
2202.9754033639069
 30
0.0
 11
5050.8253361523784
 21
2202.9754033639042
 31
0.0
  0
LINE
  5
8B
  8
HONTAIGAIKEI
 10
4895.3943306978799
 20
1812.9754033639149
 30
0.0
 11
4895.3943306978799
 21
1596.7726717077819
 31
0.0
  0
LINE
  5
8C
  8
HONTAIGAIKEI
 10
4646.1463733357778
 20
1576.7726717077819
 30
0.0
 11
4875.394330697879
 21
1576.7726717077819
 31
0.0
  0
ARC
  5
8D
  8
HONTAIGAIKEI
 10
4646.1463733357778
 20
1812.975403363911
 30
0.0
 40
20.0
 50
90.0
 51
180.0
  0
ARC
  5
8E
  8
HONTAIGAIKEI
 10
4646.1463733357778
 20
1596.7726717077819
 30
0.0
 40
20.0
 50
180.0
 51
270.0
  0
ARC
  5
8F
  8
HONTAIGAIKEI
 10
4875.394330697879
 20
1812.9754033639149
 30
0.0
 40
20.0
 50
0.0
 51
90.0
  0
ARC
  5
90
  8
HONTAIGAIKEI
 10
4875.394330697879
 20
1596.7726717077819
 30
0.0
 40
20.0
 50
270.0
 51
0.0
  0
LINE
  5
91
  8
HONTAIGAIKEI
 10
6682.1244370180102
 20
1832.975403363911
 30
0.0
 11
5878.2563800825992
 21
1832.975403363911
 31
0.0
  0
LINE
  5
92
  8
HONTAIGAIKEI
 10
4646.1463733357778
 20
1576.7726717077819
 30
0.0
 11
4617.1244370180102
 21
1492.975403363911
 31
0.0
  0
LINE
  5
93
  8
HONTAIGAIKEI
 10
4631.6354051768967
 20
1534.8740375358459
 30
0.0
 11
5395.926096633495
 21
1534.8740375358429
 31
0.0
  0
LINE
  5
94
  8
HONTAIGAIKEI
 10
5646.6269106689178
 20
1723.626364282379
 30
0.0
 11
5521.2687423645002
 21
1571.3237172296831
 31
0.0
  0
ARC
  5
95
  8
HONTAIGAIKEI
 10
5878.2563800825992
 20
1532.975403363911
 30
0.0
 40
300.0
 50
90.0
 51
140.54268390379659
  0
ARC
  5
96
  8
HONTAIGAIKEI
 10
5397.7893293476409
 20
1762.204882303522
 30
0.0
 40
227.3384802864083
 50
269.5304069692184
 51
302.89848686762588
  0
LINE
  5
97
  8
HONTAIGAIKEI
 10
5395.926096633495
 20
1534.8740375358429
 30
0.0
 11
5364.9659627518604
 21
1232.9754033639181
 31
0.0
  0
LINE
  5
98
  8
HONTAIGAIKEI
 10
5632.7192967063856
 20
2632.975403363911
 30
0.0
 11
4751.4085542481289
 21
2596.2097585671622
 31
0.0
  0
LINE
  5
99
  8
HONTAIGAIKEI
 10
5632.7192967063856
 20
2602.9754033639151
 30
0.0
 11
4718.3092215626339
 21
2562.1375695535171
 31
0.0
  0
LINE
  5
9A
  8
HONTAIGAIKEI
 10
4787.1244370180102
 20
2632.975403363911
 30
0.0
 11
4693.4583215463317
 21
2536.5562513269469
 31
0.0
  0
LINE
  5
9B
  8
HONTAIGAIKEI
 10
4646.1463733357696
 20
1882.975403363904
 30
0.0
 11
4646.1463733357778
 21
1832.975403363911
 31
0.0
  0
LINE
  5
9C
  8
HONTAIGAIKEI
 10
4626.1463733357768
 20
1812.975403363911
 30
0.0
 11
4626.1463733357768
 21
1596.7726717077819
 31
0.0
  0
ARC
  5
9D
  8
HONTAIGAIKEI
 10
4666.1463733357696
 20
1882.975403363904
 30
0.0
 40
20.0
 50
90.0
 51
180.0
  0
LINE
  5
9E
  8
HONTAIGAIKEI
 10
4666.1463733357696
 20
2082.9754033639042
 30
0.0
 11
4735.5816445492201
 21
2082.9754033639042
 31
0.0
  0
LINE
  5
9F
  8
HONTAIGAIKEI
 10
4693.4583215463317
 20
2536.5562513269469
 30
0.0
 11
4637.851478863111
 21
2151.9157724846368
 31
0.0
  0
LINE
  5
A0
  8
HONTAIGAIKEI
 10
4639.490129575318
 20
2140.6651554928321
 30
0.0
 11
4666.1463733357696
 21
2082.9754033639042
 31
0.0
  0
LINE
  5
A1
  8
HONTAIGAIKEI
 10
4666.1463733357696
 20
2082.9754033639042
 30
0.0
 11
4666.1463733357696
 21
1952.415378896425
 31
0.0
  0
LINE
  5
A2
  8
HONTAIGAIKEI
 10
5012.0876749462877
 20
2579.66693694899
 30
0.0
 11
5012.0876749462877
 21
1902.9754033639031
 31
0.0
  0
LINE
  5
A3
  8
HONTAIGAIKEI
 10
5150.7271162373327
 20
3223.8203055165218
 30
0.0
 11
5021.0660314984307
 21
2640.253919843286
 31
0.0
  0
LINE
  5
A4
  8
TLINE
 10
5458.2675050813159
 20
3218.6447341805952
 30
0.0
 11
5618.6907069068438
 21
3218.6447341805979
 31
0.0
  0
LINE
  5
A5
  8
TLINE
 10
5689.946450269741
 20
3188.6447341805952
 30
0.0
 11
5689.9464502697483
 21
2742.2852021526628
 31
0.0
  0
LINE
  5
A6
  8
TLINE
 10
6167.644416582847
 20
3188.6447341805952
 30
0.0
 11
6167.644416582847
 21
2742.2852021526628
 31
0.0
  0
LINE
  5
A7
  8
TLINE
 10
5179.5576852503182
 20
3179.929832852355
 30
0.0
 11
5065.2435332533832
 21
2686.5161809328602
 31
0.0
  0
LINE
  5
A8
  8
TLINE
 10
5095.7190545767908
 20
2649.7711592573401
 30
0.0
 11
5619.9403363316487
 21
2662.0373910384478
 31
0.0
  0
LINE
  5
A9
  8
TLINE
 10
5648.6907069068438
 20
3188.6447341805979
 30
0.0
 11
5648.6907069068438
 21
2692.0113535109122
 31
0.0
  0
LINE
  5
AA
  8
TLINE
 10
5719.946450269741
 20
3218.6447341805952
 30
0.0
 11
6137.644416582848
 21
3218.6447341805952
 31
0.0
  0
ARC
  5
AB
  8
TLINE
 10
5443.5827237113299
 20
2301.7830184111372
 30
0.0
 40
916.97930655364132
 50
89.082408995823499
 51
106.7340155894353
  0
ARC
  5
AC
  8
TLINE
 10
5094.4694251519868
 20
2679.7451217298039
 30
0.0
 40
30.0
 50
166.95583985086421
 51
272.38730710190242
  0
LINE
  5
AD
  8
HONTAIGAIKEI
 10
4787.1244370180102
 20
2632.975403363911
 30
0.0
 11
4989.3969660280463
 21
2616.8556746512108
 31
0.0
  0
ARC
  5
AE
  8
HONTAIGAIKEI
 10
4991.7802036114117
 20
2646.760861134851
 30
0.0
 40
30.0
 50
265.44355033999142
 51
347.47309481816842
  0
ARC
  5
AF
  8
HONTAIGAIKEI
 10
5199.5368293823667
 20
3212.975403363911
 30
0.0
 40
50.0
 50
90.0
 51
167.47309481816839
  0
ARC
  5
B0
  8
TLINE
 10
5618.6907069068438
 20
3188.6447341805979
 30
0.0
 40
30.0
 50
0.0
 51
90.0
  0
ARC
  5
B1
  8
TLINE
 10
5618.6907069068438
 20
2692.0113535109122
 30
0.0
 40
30.0
 50
272.38730710190242
 51
0.0
  0
LINE
  5
B2
  8
TLINE
 10
5719.9464502697483
 20
2712.2852021526628
 30
0.0
 11
6137.644416582848
 21
2712.2852021526628
 31
0.0
  0
ARC
  5
B3
  8
TLINE
 10
5719.946450269741
 20
3188.6447341805952
 30
0.0
 40
30.0
 50
90.0
 51
180.0
  0
ARC
  5
B4
  8
TLINE
 10
6137.644416582848
 20
3188.6447341805952
 30
0.0
 40
30.0
 50
0.0
 51
90.0
  0
ARC
  5
B5
  8
TLINE
 10
5719.9464502697483
 20
2742.2852021526628
 30
0.0
 40
30.0
 50
180.0
 51
270.0
  0
ARC
  5
B6
  8
TLINE
 10
6137.644416582848
 20
2742.2852021526628
 30
0.0
 40
30.0
 50
270.0
 51
0.0
  0
LINE
  5
B7
  8
TLINE
 10
6286.6700264979991
 20
3219.9465061195551
 30
0.0
 11
6492.4893599022071
 21
3219.9465061195551
 31
0.0
  0
LINE
  5
B8
  8
TLINE
 10
6286.6700264979991
 20
2712.2852021526601
 30
0.0
 11
6547.9013421990567
 21
2712.2852021526628
 31
0.0
  0
LINE
  5
B9
  8
TLINE
 10
6256.6700264979991
 20
3189.9465061195551
 30
0.0
 11
6256.6700264979991
 21
2742.2852021526601
 31
0.0
  0
LINE
  5
BA
  8
TLINE
 10
6522.2621414391069
 20
3193.6318120167421
 30
0.0
 11
6577.6741237359574
 21
2745.9705080498502
 31
0.0
  0
ARC
  5
BB
  8
TLINE
 10
6286.6700264979991
 20
3189.9465061195551
 30
0.0
 40
30.0
 50
90.0
 51
180.0
  0
ARC
  5
BC
  8
TLINE
 10
6286.6700264979991
 20
2742.2852021526601
 30
0.0
 40
30.0
 50
180.0
 51
270.0
  0
ARC
  5
BD
  8
TLINE
 10
6492.4893599022071
 20
3189.9465061195551
 30
0.0
 40
30.0
 50
7.0562393471898588
 51
90.0
  0
ARC
  5
BE
  8
TLINE
 10
6547.9013421990567
 20
2742.2852021526628
 30
0.0
 40
30.0
 50
270.0
 51
7.0562393471898588
  0
ARC
  5
BF
  8
HONTAIGAIKEI
 10
6043.877268754095
 20
1532.975403363889
 30
0.0
 40
550.0
 50
90.0
 51
137.72209240100261
  0
LINE
  5
C0
  8
HONTAIGAIKEI
 10
6043.8772687541023
 20
2082.9754033638892
 30
0.0
 11
6682.1244370180102
 21
2082.9754033638819
 31
0.0
  0
LINE
  5
C1
  8
HONTAIGAIKEI
 10
6200.2148268798001
 20
2632.9754033639151
 30
0.0
 11
6200.2148268797928
 21
2082.9754033638892
 31
0.0
  0
LINE
  5
C2
  8
HONTAIGAIKEI
 10
6137.644416582848
 20
2712.2852021526628
 30
0.0
 11
6200.2148268798001
 21
2632.975403363911
 31
0.0
  0
LINE
  5
C3
  8
TLINE
 10
5636.937469766588
 20
1872.040670277009
 30
0.0
 11
6631.938320848134
 21
1872.040670277009
 31
0.0
  0
LINE
  5
C4
  8
TLINE
 10
5636.9374697665953
 20
1902.9754033639069
 30
0.0
 11
5636.9374697665953
 21
1872.040670277009
 31
0.0
  0
LINE
  5
C5
  8
TLINE
 10
6631.938320848134
 20
1872.040670277009
 30
0.0
 11
6631.938320848134
 21
1902.975403363911
 31
0.0
  0
LINE
  5
C6
  8
TLINE
 10
5612.6436215514941
 20
2466.4410225823822
 30
0.0
 11
5612.6436215514941
 21
2003.1187045024531
 31
0.0
  0
LINE
  5
C7
  8
TLINE
 10
5592.643621551495
 20
1983.1187045024531
 30
0.0
 11
5133.3956641894001
 21
1983.1187045024601
 31
0.0
  0
LINE
  5
C8
  8
TLINE
 10
5113.3956641894001
 20
2003.1187045024601
 30
0.0
 11
5113.3956641894001
 21
2466.441022582389
 31
0.0
  0
LINE
  5
C9
  8
TLINE
 10
5133.3956641894001
 20
2486.4410225823881
 30
0.0
 11
5592.643621551495
 21
2486.4410225823808
 31
0.0
  0
LINE
  5
CA
  8
HONTAIGAIKEI
 10
5679.5566572514545
 20
2202.975403363911
 30
0.0
 11
6682.1244370180102
 21
2202.975403363911
 31
0.0
  0
LINE
  5
CB
  8
HONTAIGAIKEI
 10
5679.5566572514545
 20
2202.975403363911
 30
0.0
 11
6682.1244370180102
 21
2202.975403363911
 31
0.0
  0
LINE
  5
CC
  8
HONTAIGAIKEI
 10
5649.5566572514554
 20
2232.975403363911
 30
0.0
 11
5649.5566572514554
 21
2495.4918955650392
 31
0.0
  0
LINE
  5
CD
  8
HONTAIGAIKEI
 10
5619.5566572514545
 20
2525.4918955650401
 30
0.0
 11
5110.8253361523784
 21
2525.4918955650428
 31
0.0
  0
LINE
  5
CE
  8
HONTAIGAIKEI
 10
5080.8253361523784
 20
2495.4918955650428
 30
0.0
 11
5080.8253361523784
 21
2232.9754033639042
 31
0.0
  0
ARC
  5
CF
  8
TLINE
 10
5133.3956641894001
 20
2003.1187045024601
 30
0.0
 40
20.0
 50
180.0
 51
270.0
  0
ARC
  5
D0
  8
TLINE
 10
5592.643621551495
 20
2003.1187045024531
 30
0.0
 40
20.0
 50
270.0
 51
0.0
  0
ARC
  5
D1
  8
TLINE
 10
5133.3956641894001
 20
2466.441022582389
 30
0.0
 40
20.0
 50
90.0
 51
180.0
  0
ARC
  5
D2
  8
HONTAIGAIKEI
 10
5592.643621551495
 20
2466.4410225823822
 30
0.0
 40
20.0
 50
0.0
 51
90.0
  0
ARC
  5
D3
  8
HONTAIGAIKEI
 10
5110.8253361523784
 20
2495.4918955650428
 30
0.0
 40
30.0
 50
90.0
 51
180.0
  0
ARC
  5
D4
  8
HONTAIGAIKEI
 10
5619.5566572514545
 20
2495.4918955650392
 30
0.0
 40
30.0
 50
0.0
 51
90.0
  0
ARC
  5
D5
  8
HONTAIGAIKEI
 10
5679.5566572514545
 20
2232.975403363911
 30
0.0
 40
30.0
 50
180.0
 51
270.0
  0
ARC
  5
D6
  8
HONTAIGAIKEI
 10
5050.8253361523784
 20
2232.9754033639042
 30
0.0
 40
30.0
 50
270.0
 51
0.0
  0
LINE
  5
D7
  8
TLINE
 10
5978.7536645758992
 20
2412.6782849078372
 30
0.0
 11
6148.5182582010057
 21
2412.6782849078299
 31
0.0
  0
LINE
  5
D8
  8
TLINE
 10
6163.5182582010057
 20
2397.6782849078299
 30
0.0
 11
6163.5182582010202
 21
2340.89856716861
 31
0.0
  0
LINE
  5
D9
  8
TLINE
 10
6148.5182582010202
 20
2325.89856716861
 30
0.0
 11
5978.7536645758919
 21
2325.89856716861
 31
0.0
  0
LINE
  5
DA
  8
TLINE
 10
5963.7536645758919
 20
2340.89856716861
 30
0.0
 11
5963.7536645758992
 21
2397.6782849078372
 31
0.0
  0
ARC
  5
DB
  8
TLINE
 10
5978.7536645758992
 20
2397.6782849078372
 30
0.0
 40
15.0
 50
90.0
 51
180.0
  0
ARC
  5
DC
  8
TLINE
 10
5978.7536645758919
 20
2340.89856716861
 30
0.0
 40
15.0
 50
180.0
 51
270.0
  0
ARC
  5
DD
  8
TLINE
 10
6148.5182582010057
 20
2397.6782849078299
 30
0.0
 40
15.0
 50
0.0
 51
90.0
  0
ARC
  5
DE
  8
TLINE
 10
6148.5182582010202
 20
2340.89856716861
 30
0.0
 40
15.0
 50
270.0
 51
0.0
  0
ARC
  5
DF
  8
TLINE
 10
6001.642467634807
 20
2369.2884260382239
 30
0.0
 40
9.4373032656512805
 50
92.603016532660376
 51
267.39698346733962
  0
ARC
  5
E0
  8
TLINE
 10
6121.066948930591
 20
2369.2884260382202
 30
0.0
 40
14.86103562435528
 50
267.39698346733962
 51
92.603016532660376
  0
LINE
  5
E1
  8
TLINE
 10
6001.2138670116728
 20
2378.7159917067152
 30
0.0
 11
6120.3920263441578
 21
2384.1341277505239
 31
0.0
  0
LINE
  5
E2
  8
TLINE
 10
6120.3920263441578
 20
2354.4427243259161
 30
0.0
 11
6001.2138670116728
 21
2359.8608603697321
 31
0.0
  0
CIRCLE
  5
E3
  8
TLINE
 10
6121.066948930591
 20
2369.2884260382202
 30
0.0
 40
7.8711653509453754
  0
LINE
  5
E4
  8
HONTAIGAIKEI
 10
5180.4911865087597
 20
3452.975403363911
 30
0.0
 11
5128.3786945534994
 21
3557.8450544704428
 31
0.0
  0
LINE
  5
E5
  8
HONTAIGAIKEI
 10
5128.3786945534994
 20
3557.8450544704428
 30
0.0
 11
5668.8823541485217
 21
3529.2077745010429
 31
0.0
  0
ARC
  5
E6
  8
HONTAIGAIKEI
 10
5668.8823541485217
 20
3450.0268758484021
 30
0.0
 40
79.18089865264281
 50
2.1340658281494211
 51
90.0
  0
LINE
  5
E7
  8
TLINE
 10
4642.2150703331172
 20
1783.1593813404249
 30
0.0
 11
4642.2150703331172
 21
1638.752481144573
 31
0.0
  0
LINE
  5
E8
  8
TLINE
 10
4662.2150703331172
 20
1618.752481144573
 30
0.0
 11
4704.7265570589034
 21
1618.752481144573
 31
0.0
  0
LINE
  5
E9
  8
TLINE
 10
4724.7265570589043
 20
1638.752481144573
 30
0.0
 11
4724.7265570589043
 21
1783.1593813404249
 31
0.0
  0
LINE
  5
EA
  8
TLINE
 10
4704.7265570589034
 20
1803.1593813404249
 30
0.0
 11
4662.2150703331172
 21
1803.1593813404249
 31
0.0
  0
ARC
  5
EB
  8
TLINE
 10
4704.7265570589034
 20
1783.1593813404249
 30
0.0
 40
20.0
 50
0.0
 51
90.0
  0
ARC
  5
EC
  8
TLINE
 10
4704.7265570589034
 20
1638.752481144573
 30
0.0
 40
20.0
 50
270.0
 51
0.0
  0
ARC
  5
ED
  8
TLINE
 10
4662.2150703331172
 20
1783.1593813404249
 30
0.0
 40
20.0
 50
90.0
 51
180.0
  0
ARC
  5
EE
  8
TLINE
 10
4662.2150703331172
 20
1638.752481144573
 30
0.0
 40
20.0
 50
180.0
 51
270.0
  0
LINE
  5
EF
  8
HONTAIGAIKEI
 10
5556.1919591105434
 20
3352.6111474783761
 30
0.0
 11
6293.1905409288775
 21
3352.6111474783761
 31
0.0
  0
ARC
  5
F0
  8
HONTAIGAIKEI
 10
5541.3862537980858
 20
2668.3798749279931
 30
0.0
 40
684.3914400733812
 50
88.760401489970889
 51
119.6811450038018
  0
LINE
  5
F1
  8
HONTAIGAIKEI
 10
4839.7595254289517
 20
2569.384346749885
 30
0.0
 11
4815.4873169307511
 21
2202.9754033639069
 31
0.0
  0
LINE
  5
F2
  8
TLINE
 10
13067.124437017999
 20
1816.3748925930879
 30
0.0
 11
13570.29344154038
 21
1662.975403363911
 31
0.0
  0
LINE
  5
F3
  8
TLINE
 10
13570.29344154038
 20
1662.975403363911
 30
0.0
 11
13683.20392303671
 21
1394.860937078945
 31
0.0
  0
LINE
  5
F4
  8
TLINE
 10
13683.20392303671
 20
1394.860937078945
 30
0.0
 11
13722.28829200315
 21
1394.860937078945
 31
0.0
  0
LINE
  5
F5
  8
TLINE
 10
13722.28829200315
 20
1394.860937078945
 30
0.0
 11
13599.72431090268
 21
1706.5744581380709
 31
0.0
  0
LINE
  5
F6
  8
TLINE
 10
13067.124437017999
 20
1872.5640733108951
 30
0.0
 11
13599.72431090268
 21
1706.5744581380709
 31
0.0
  0
LINE
  5
F7
  8
HONTAIGAIKEI
 10
7195.3413625284129
 20
1748.5872590106919
 30
0.0
 11
7195.3413625284129
 21
1562.3661337371559
 31
0.0
  0
LINE
  5
F8
  8
HONTAIGAIKEI
 10
7205.341362528412
 20
1552.3661337371559
 30
0.0
 11
7226.5971058913092
 21
1552.3661337371559
 31
0.0
  0
LINE
  5
F9
  8
HONTAIGAIKEI
 10
7236.5971058913092
 20
1562.3661337371559
 30
0.0
 11
7236.5971058913092
 21
1748.587259010696
 31
0.0
  0
ARC
  5
FA
  8
HONTAIGAIKEI
 10
7226.5971058913092
 20
1562.3661337371559
 30
0.0
 40
10.0
 50
270.0
 51
0.0
  0
ARC
  5
FB
  8
HONTAIGAIKEI
 10
7205.341362528412
 20
1562.3661337371559
 30
0.0
 40
10.0
 50
180.0
 51
270.0
  0
LINE
  5
FC
  8
HONTAIGAIKEI
 10
7365.7927102761787
 20
1602.975403363911
 30
0.0
 11
7365.7927102761714
 21
1452.975403363911
 31
0.0
  0
LINE
  5
FD
  8
HONTAIGAIKEI
 10
7425.7927102761714
 20
1257.3151158275759
 30
0.0
 11
8278.559596944051
 21
1257.3151158275789
 31
0.0
  0
LINE
  5
FE
  8
HONTAIGAIKEI
 10
8338.559596944051
 20
1317.3151158275789
 30
0.0
 11
8338.559596944051
 21
1332.9754033639069
 31
0.0
  0
ARC
  5
FF
  8
HONTAIGAIKEI
 10
7425.7927102761778
 20
1602.975403363911
 30
0.0
 40
60.0
 50
90.0
 51
180.0
  0
ARC
  5
100
  8
HONTAIGAIKEI
 10
8278.559596944051
 20
1602.975403363911
 30
0.0
 40
60.0
 50
0.0
 51
90.0
  0
ARC
  5
101
  8
HONTAIGAIKEI
 10
8278.559596944051
 20
1317.3151158275789
 30
0.0
 40
60.0
 50
270.0
 51
0.0
  0
ARC
  5
102
  8
HONTAIGAIKEI
 10
7425.7927102761714
 20
1317.3151158275759
 30
0.0
 40
60.0
 50
180.0
 51
270.0
  0
LINE
  5
103
  8
HONTAIGAIKEI
 10
7365.7927102761714
 20
1332.975403363911
 30
0.0
 11
7365.7927102761714
 21
1317.3151158275759
 31
0.0
  0
LINE
  5
104
  8
HONTAIGAIKEI
 10
8338.559596944051
 20
1452.9754033639149
 30
0.0
 11
8338.559596944051
 21
1602.975403363911
 31
0.0
  0
LINE
  5
105
  8
HONTAIGAIKEI
 10
13335.63886865996
 20
1662.975403363911
 30
0.0
 11
13570.293441540371
 21
1662.975403363911
 31
0.0
  0
LINE
  5
106
  8
HONTAIGAIKEI
 10
12658.880854666389
 20
1662.975403363911
 30
0.0
 11
12798.610005376049
 21
1662.975403363911
 31
0.0
  0
POLYLINE
  5
107
  8
TLINE
 10
7734.4866783161233
 20
1746.752732838318
 30
0.0
 66
     1
 70
     8
  0
VERTEX
  8
TLINE
  5
266
 10
7734.49
 20
1746.75
 30
0.000000
  70
    32
  0
VERTEX
  8
TLINE
  5
267
 10
7734.42
 20
1748.24
 30
0.000000
  70
    32
  0
VERTEX
  8
TLINE
  5
268
 10
7734.20
 20
1749.73
 30
0.000000
  70
    32
  0
VERTEX
  8
TLINE
  5
269
 10
7733.85
 20
1751.21
 30
0.000000
  70
    32
  0
VERTEX
  8
TLINE
  5
26A
 10
7733.36
 20
1752.68
 30
0.000000
  70
    32
  0
VERTEX
  8
TLINE
  5
26B
 10
7732.73
 20
1754.14
 30
0.000000
  70
    32
  0
VERTEX
  8
TLINE
  5
26C
 10
7731.96
 20
1755.58
 30
0.000000
  70
    32
  0
VERTEX
  8
TLINE
  5
26D
 10
7731.06
 20
1756.99
 30
0.000000
  70
    32
  0
VERTEX
  8
TLINE
  5
26E
 10
7730.02
 20
1758.39
 30
0.000000
  70
    32
  0
VERTEX
  8
TLINE
  5
26F
 10
7728.86
 20
1759.75
 30
0.000000
  70
    32
  0
VERTEX
  8
TLINE
  5
270
 10
7727.56
 20
1761.08
 30
0.000000
  70
    32
  0
VERTEX
  8
TLINE
  5
271
 10
7726.15
 20
1762.38
 30
0.000000
  70
    32
  0
VERTEX
  8
TLINE
  5
272
 10
7724.61
 20
1763.64
 30
0.000000
  70
    32
  0
VERTEX
  8
TLINE
  5
273
 10
7722.95
 20
1764.86
 30
0.000000
  70
    32
  0
VERTEX
  8
TLINE
  5
274
 10
7721.18
 20
1766.04
 30
0.000000
  70
    32
  0
VERTEX
  8
TLINE
  5
275
 10
7719.30
 20
1767.17
 30
0.000000
  70
    32
  0
VERTEX
  8
TLINE
  5
276
 10
7717.32
 20
1768.25
 30
0.000000
  70
    32
  0
VERTEX
  8
TLINE
  5
277
 10
7715.23
 20
1769.28
 30
0.000000
  70
    32
  0
VERTEX
  8
TLINE
  5
278
 10
7713.05
 20
1770.25
 30
0.000000
  70
    32
  0
VERTEX
  8
TLINE
  5
279
 10
7710.78
 20
1771.17
 30
0.000000
  70
    32
  0
VERTEX
  8
TLINE
  5
27A
 10
7708.43
 20
1772.03
 30
0.000000
  70
    32
  0
VERTEX
  8
TLINE
  5
27B
 10
7706.00
 20
1772.83
 30
0.000000
  70
    32
  0
VERTEX
  8
TLINE
  5
27C
 10
7703.50
 20
1773.56
 30
0.000000
  70
    32
  0
VERTEX
  8
TLINE
  5
27D
 10
7700.93
 20
1774.23
 30
0.000000
  70
    32
  0
VERTEX
  8
TLINE
  5
27E
 10
7698.30
 20
1774.84
 30
0.000000
  70
    32
  0
VERTEX
  8
TLINE
  5
27F
 10
7695.61
 20
1775.37
 30
0.000000
  70
    32
  0
VERTEX
  8
TLINE
  5
280
 10
7692.88
 20
1775.84
 30
0.000000
  70
    32
  0
VERTEX
  8
TLINE
  5
281
 10
7690.11
 20
1776.24
 30
0.000000
  70
    32
  0
VERTEX
  8
TLINE
  5
282
 10
7687.30
 20
1776.57
 30
0.000000
  70
    32
  0
VERTEX
  8
TLINE
  5
283
 10
7684.46
 20
1776.82
 30
0.000000
  70
    32
  0
VERTEX
  8
TLINE
  5
284
 10
7681.61
 20
1777.01
 30
0.000000
  70
    32
  0
VERTEX
  8
TLINE
  5
285
 10
7678.74
 20
1777.12
 30
0.000000
  70
    32
  0
VERTEX
  8
TLINE
  5
286
 10
7675.86
 20
1777.15
 30
0.000000
  70
    32
  0
VERTEX
  8
TLINE
  5
287
 10
7672.98
 20
1777.12
 30
0.000000
  70
    32
  0
VERTEX
  8
TLINE
  5
288
 10
7670.11
 20
1777.01
 30
0.000000
  70
    32
  0
VERTEX
  8
TLINE
  5
289
 10
7667.26
 20
1776.82
 30
0.000000
  70
    32
  0
VERTEX
  8
TLINE
  5
28A
 10
7664.42
 20
1776.57
 30
0.000000
  70
    32
  0
VERTEX
  8
TLINE
  5
28B
 10
7661.62
 20
1776.24
 30
0.000000
  70
    32
  0
VERTEX
  8
TLINE
  5
28C
 10
7658.84
 20
1775.84
 30
0.000000
  70
    32
  0
VERTEX
  8
TLINE
  5
28D
 10
7656.11
 20
1775.37
 30
0.000000
  70
    32
  0
VERTEX
  8
TLINE
  5
28E
 10
7653.42
 20
1774.84
 30
0.000000
  70
    32
  0
VERTEX
  8
TLINE
  5
28F
 10
7650.79
 20
1774.23
 30
0.000000
  70
    32
  0
VERTEX
  8
TLINE
  5
290
 10
7648.22
 20
1773.56
 30
0.000000
  70
    32
  0
VERTEX
  8
TLINE
  5
291
 10
7645.72
 20
1772.83
 30
0.000000
  70
    32
  0
VERTEX
  8
TLINE
  5
292
 10
7643.29
 20
1772.03
 30
0.000000
  70
    32
  0
VERTEX
  8
TLINE
  5
293
 10
7640.94
 20
1771.17
 30
0.000000
  70
    32
  0
VERTEX
  8
TLINE
  5
294
 10
7638.67
 20
1770.25
 30
0.000000
  70
    32
  0
VERTEX
  8
TLINE
  5
295
 10
7636.49
 20
1769.28
 30
0.000000
  70
    32
  0
VERTEX
  8
TLINE
  5
296
 10
7634.40
 20
1768.25
 30
0.000000
  70
    32
  0
VERTEX
  8
TLINE
  5
297
 10
7632.42
 20
1767.17
 30
0.000000
  70
    32
  0
VERTEX
  8
TLINE
  5
298
 10
7630.54
 20
1766.04
 30
0.000000
  70
    32
  0
VERTEX
  8
TLINE
  5
299
 10
7628.77
 20
1764.86
 30
0.000000
  70
    32
  0
VERTEX
  8
TLINE
  5
29A
 10
7627.11
 20
1763.64
 30
0.000000
  70
    32
  0
VERTEX
  8
TLINE
  5
29B
 10
7625.57
 20
1762.38
 30
0.000000
  70
    32
  0
VERTEX
  8
TLINE
  5
29C
 10
7624.16
 20
1761.08
 30
0.000000
  70
    32
  0
VERTEX
  8
TLINE
  5
29D
 10
7622.86
 20
1759.75
 30
0.000000
  70
    32
  0
VERTEX
  8
TLINE
  5
29E
 10
7621.70
 20
1758.39
 30
0.000000
  70
    32
  0
VERTEX
  8
TLINE
  5
29F
 10
7620.66
 20
1756.99
 30
0.000000
  70
    32
  0
VERTEX
  8
TLINE
  5
2A0
 10
7619.76
 20
1755.58
 30
0.000000
  70
    32
  0
VERTEX
  8
TLINE
  5
2A1
 10
7618.99
 20
1754.14
 30
0.000000
  70
    32
  0
VERTEX
  8
TLINE
  5
2A2
 10
7618.36
 20
1752.68
 30
0.000000
  70
    32
  0
VERTEX
  8
TLINE
  5
2A3
 10
7617.87
 20
1751.21
 30
0.000000
  70
    32
  0
VERTEX
  8
TLINE
  5
2A4
 10
7617.52
 20
1749.73
 30
0.000000
  70
    32
  0
VERTEX
  8
TLINE
  5
2A5
 10
7617.30
 20
1748.24
 30
0.000000
  70
    32
  0
VERTEX
  8
TLINE
  5
2A6
 10
7617.23
 20
1746.75
 30
0.000000
  70
    32
  0
VERTEX
  8
TLINE
  5
2A7
 10
7617.30
 20
1745.26
 30
0.000000
  70
    32
  0
VERTEX
  8
TLINE
  5
2A8
 10
7617.52
 20
1743.77
 30
0.000000
  70
    32
  0
VERTEX
  8
TLINE
  5
2A9
 10
7617.87
 20
1742.29
 30
0.000000
  70
    32
  0
VERTEX
  8
TLINE
  5
2AA
 10
7618.36
 20
1740.82
 30
0.000000
  70
    32
  0
VERTEX
  8
TLINE
  5
2AB
 10
7618.99
 20
1739.37
 30
0.000000
  70
    32
  0
VERTEX
  8
TLINE
  5
2AC
 10
7619.76
 20
1737.93
 30
0.000000
  70
    32
  0
VERTEX
  8
TLINE
  5
2AD
 10
7620.66
 20
1736.51
 30
0.000000
  70
    32
  0
VERTEX
  8
TLINE
  5
2AE
 10
7621.70
 20
1735.12
 30
0.000000
  70
    32
  0
VERTEX
  8
TLINE
  5
2AF
 10
7622.86
 20
1733.76
 30
0.000000
  70
    32
  0
VERTEX
  8
TLINE
  5
2B0
 10
7624.16
 20
1732.42
 30
0.000000
  70
    32
  0
VERTEX
  8
TLINE
  5
2B1
 10
7625.57
 20
1731.12
 30
0.000000
  70
    32
  0
VERTEX
  8
TLINE
  5
2B2
 10
7627.11
 20
1729.86
 30
0.000000
  70
    32
  0
VERTEX
  8
TLINE
  5
2B3
 10
7628.77
 20
1728.64
 30
0.000000
  70
    32
  0
VERTEX
  8
TLINE
  5
2B4
 10
7630.54
 20
1727.47
 30
0.000000
  70
    32
  0
VERTEX
  8
TLINE
  5
2B5
 10
7632.42
 20
1726.34
 30
0.000000
  70
    32
  0
VERTEX
  8
TLINE
  5
2B6
 10
7634.40
 20
1725.26
 30
0.000000
  70
    32
  0
VERTEX
  8
TLINE
  5
2B7
 10
7636.49
 20
1724.23
 30
0.000000
  70
    32
  0
VERTEX
  8
TLINE
  5
2B8
 10
7638.67
 20
1723.25
 30
0.000000
  70
    32
  0
VERTEX
  8
TLINE
  5
2B9
 10
7640.94
 20
1722.34
 30
0.000000
  70
    32
  0
VERTEX
  8
TLINE
  5
2BA
 10
7643.29
 20
1721.48
 30
0.000000
  70
    32
  0
VERTEX
  8
TLINE
  5
2BB
 10
7645.72
 20
1720.68
 30
0.000000
  70
    32
  0
VERTEX
  8
TLINE
  5
2BC
 10
7648.22
 20
1719.94
 30
0.000000
  70
    32
  0
VERTEX
  8
TLINE
  5
2BD
 10
7650.79
 20
1719.27
 30
0.000000
  70
    32
  0
VERTEX
  8
TLINE
  5
2BE
 10
7653.42
 20
1718.67
 30
0.000000
  70
    32
  0
VERTEX
  8
TLINE
  5
2BF
 10
7656.11
 20
1718.13
 30
0.000000
  70
    32
  0
VERTEX
  8
TLINE
  5
2C0
 10
7658.84
 20
1717.66
 30
0.000000
  70
    32
  0
VERTEX
  8
TLINE
  5
2C1
 10
7661.62
 20
1717.26
 30
0.000000
  70
    32
  0
VERTEX
  8
TLINE
  5
2C2
 10
7664.42
 20
1716.94
 30
0.000000
  70
    32
  0
VERTEX
  8
TLINE
  5
2C3
 10
7667.26
 20
1716.68
 30
0.000000
  70
    32
  0
VERTEX
  8
TLINE
  5
2C4
 10
7670.11
 20
1716.50
 30
0.000000
  70
    32
  0
VERTEX
  8
TLINE
  5
2C5
 10
7672.98
 20
1716.39
 30
0.000000
  70
    32
  0
VERTEX
  8
TLINE
  5
2C6
 10
7675.86
 20
1716.35
 30
0.000000
  70
    32
  0
VERTEX
  8
TLINE
  5
2C7
 10
7678.74
 20
1716.39
 30
0.000000
  70
    32
  0
VERTEX
  8
TLINE
  5
2C8
 10
7681.61
 20
1716.50
 30
0.000000
  70
    32
  0
VERTEX
  8
TLINE
  5
2C9
 10
7684.46
 20
1716.68
 30
0.000000
  70
    32
  0
VERTEX
  8
TLINE
  5
2CA
 10
7687.30
 20
1716.94
 30
0.000000
  70
    32
  0
VERTEX
  8
TLINE
  5
2CB
 10
7690.11
 20
1717.26
 30
0.000000
  70
    32
  0
VERTEX
  8
TLINE
  5
2CC
 10
7692.88
 20
1717.66
 30
0.000000
  70
    32
  0
VERTEX
  8
TLINE
  5
2CD
 10
7695.61
 20
1718.13
 30
0.000000
  70
    32
  0
VERTEX
  8
TLINE
  5
2CE
 10
7698.30
 20
1718.67
 30
0.000000
  70
    32
  0
VERTEX
  8
TLINE
  5
2CF
 10
7700.93
 20
1719.27
 30
0.000000
  70
    32
  0
VERTEX
  8
TLINE
  5
2D0
 10
7703.50
 20
1719.94
 30
0.000000
  70
    32
  0
VERTEX
  8
TLINE
  5
2D1
 10
7706.00
 20
1720.68
 30
0.000000
  70
    32
  0
VERTEX
  8
TLINE
  5
2D2
 10
7708.43
 20
1721.48
 30
0.000000
  70
    32
  0
VERTEX
  8
TLINE
  5
2D3
 10
7710.78
 20
1722.34
 30
0.000000
  70
    32
  0
VERTEX
  8
TLINE
  5
2D4
 10
7713.05
 20
1723.25
 30
0.000000
  70
    32
  0
VERTEX
  8
TLINE
  5
2D5
 10
7715.23
 20
1724.23
 30
0.000000
  70
    32
  0
VERTEX
  8
TLINE
  5
2D6
 10
7717.32
 20
1725.26
 30
0.000000
  70
    32
  0
VERTEX
  8
TLINE
  5
2D7
 10
7719.30
 20
1726.34
 30
0.000000
  70
    32
  0
VERTEX
  8
TLINE
  5
2D8
 10
7721.18
 20
1727.47
 30
0.000000
  70
    32
  0
VERTEX
  8
TLINE
  5
2D9
 10
7722.95
 20
1728.64
 30
0.000000
  70
    32
  0
VERTEX
  8
TLINE
  5
2DA
 10
7724.61
 20
1729.86
 30
0.000000
  70
    32
  0
VERTEX
  8
TLINE
  5
2DB
 10
7726.15
 20
1731.12
 30
0.000000
  70
    32
  0
VERTEX
  8
TLINE
  5
2DC
 10
7727.56
 20
1732.42
 30
0.000000
  70
    32
  0
VERTEX
  8
TLINE
  5
2DD
 10
7728.86
 20
1733.76
 30
0.000000
  70
    32
  0
VERTEX
  8
TLINE
  5
2DE
 10
7730.02
 20
1735.12
 30
0.000000
  70
    32
  0
VERTEX
  8
TLINE
  5
2DF
 10
7731.06
 20
1736.51
 30
0.000000
  70
    32
  0
VERTEX
  8
TLINE
  5
2E0
 10
7731.96
 20
1737.93
 30
0.000000
  70
    32
  0
VERTEX
  8
TLINE
  5
2E1
 10
7732.73
 20
1739.37
 30
0.000000
  70
    32
  0
VERTEX
  8
TLINE
  5
2E2
 10
7733.36
 20
1740.82
 30
0.000000
  70
    32
  0
VERTEX
  8
TLINE
  5
2E3
 10
7733.85
 20
1742.29
 30
0.000000
  70
    32
  0
VERTEX
  8
TLINE
  5
2E4
 10
7734.20
 20
1743.77
 30
0.000000
  70
    32
  0
VERTEX
  8
TLINE
  5
2E5
 10
7734.42
 20
1745.26
 30
0.000000
  70
    32
  0
VERTEX
  8
TLINE
  5
2E6
 10
7734.49
 20
1746.75
 30
0.000000
  70
    32
  0
SEQEND
  8
TLINE
  5
2E7
  0
POLYLINE
  5
108
  8
TLINE
 10
7617.2335302868269
 20
1734.8205216491731
 30
0.0
 66
     1
 70
     8
  0
VERTEX
  8
TLINE
  5
2E8
 10
7617.23
 20
1734.82
 30
0.000000
  70
    32
  0
VERTEX
  8
TLINE
  5
2E9
 10
7617.25
 20
1734.07
 30
0.000000
  70
    32
  0
VERTEX
  8
TLINE
  5
2EA
 10
7617.30
 20
1733.33
 30
0.000000
  70
    32
  0
VERTEX
  8
TLINE
  5
2EB
 10
7617.39
 20
1732.58
 30
0.000000
  70
    32
  0
VERTEX
  8
TLINE
  5
2EC
 10
7617.52
 20
1731.84
 30
0.000000
  70
    32
  0
VERTEX
  8
TLINE
  5
2ED
 10
7617.67
 20
1731.10
 30
0.000000
  70
    32
  0
VERTEX
  8
TLINE
  5
2EE
 10
7617.87
 20
1730.36
 30
0.000000
  70
    32
  0
VERTEX
  8
TLINE
  5
2EF
 10
7618.10
 20
1729.62
 30
0.000000
  70
    32
  0
VERTEX
  8
TLINE
  5
2F0
 10
7618.36
 20
1728.89
 30
0.000000
  70
    32
  0
VERTEX
  8
TLINE
  5
2F1
 10
7618.66
 20
1728.16
 30
0.000000
  70
    32
  0
VERTEX
  8
TLINE
  5
2F2
 10
7618.99
 20
1727.43
 30
0.000000
  70
    32
  0
VERTEX
  8
TLINE
  5
2F3
 10
7619.36
 20
1726.71
 30
0.000000
  70
    32
  0
VERTEX
  8
TLINE
  5
2F4
 10
7619.76
 20
1726.00
 30
0.000000
  70
    32
  0
VERTEX
  8
TLINE
  5
2F5
 10
7620.19
 20
1725.28
 30
0.000000
  70
    32
  0
VERTEX
  8
TLINE
  5
2F6
 10
7620.66
 20
1724.58
 30
0.000000
  70
    32
  0
VERTEX
  8
TLINE
  5
2F7
 10
7621.16
 20
1723.88
 30
0.000000
  70
    32
  0
VERTEX
  8
TLINE
  5
2F8
 10
7621.70
 20
1723.19
 30
0.000000
  70
    32
  0
VERTEX
  8
TLINE
  5
2F9
 10
7622.26
 20
1722.50
 30
0.000000
  70
    32
  0
VERTEX
  8
TLINE
  5
2FA
 10
7622.86
 20
1721.82
 30
0.000000
  70
    32
  0
VERTEX
  8
TLINE
  5
2FB
 10
7623.49
 20
1721.15
 30
0.000000
  70
    32
  0
VERTEX
  8
TLINE
  5
2FC
 10
7624.16
 20
1720.49
 30
0.000000
  70
    32
  0
VERTEX
  8
TLINE
  5
2FD
 10
7624.85
 20
1719.84
 30
0.000000
  70
    32
  0
VERTEX
  8
TLINE
  5
2FE
 10
7625.57
 20
1719.19
 30
0.000000
  70
    32
  0
VERTEX
  8
TLINE
  5
2FF
 10
7626.33
 20
1718.56
 30
0.000000
  70
    32
  0
VERTEX
  8
TLINE
  5
300
 10
7627.11
 20
1717.93
 30
0.000000
  70
    32
  0
VERTEX
  8
TLINE
  5
301
 10
7627.93
 20
1717.32
 30
0.000000
  70
    32
  0
VERTEX
  8
TLINE
  5
302
 10
7628.77
 20
1716.71
 30
0.000000
  70
    32
  0
VERTEX
  8
TLINE
  5
303
 10
7629.64
 20
1716.12
 30
0.000000
  70
    32
  0
VERTEX
  8
TLINE
  5
304
 10
7630.54
 20
1715.54
 30
0.000000
  70
    32
  0
VERTEX
  8
TLINE
  5
305
 10
7631.47
 20
1714.96
 30
0.000000
  70
    32
  0
VERTEX
  8
TLINE
  5
306
 10
7632.42
 20
1714.41
 30
0.000000
  70
    32
  0
VERTEX
  8
TLINE
  5
307
 10
7633.40
 20
1713.86
 30
0.000000
  70
    32
  0
VERTEX
  8
TLINE
  5
308
 10
7634.40
 20
1713.33
 30
0.000000
  70
    32
  0
VERTEX
  8
TLINE
  5
309
 10
7635.43
 20
1712.80
 30
0.000000
  70
    32
  0
VERTEX
  8
TLINE
  5
30A
 10
7636.49
 20
1712.30
 30
0.000000
  70
    32
  0
VERTEX
  8
TLINE
  5
30B
 10
7637.57
 20
1711.80
 30
0.000000
  70
    32
  0
VERTEX
  8
TLINE
  5
30C
 10
7638.67
 20
1711.32
 30
0.000000
  70
    32
  0
VERTEX
  8
TLINE
  5
30D
 10
7639.79
 20
1710.86
 30
0.000000
  70
    32
  0
VERTEX
  8
TLINE
  5
30E
 10
7640.94
 20
1710.40
 30
0.000000
  70
    32
  0
VERTEX
  8
TLINE
  5
30F
 10
7642.10
 20
1709.97
 30
0.000000
  70
    32
  0
VERTEX
  8
TLINE
  5
310
 10
7643.29
 20
1709.54
 30
0.000000
  70
    32
  0
VERTEX
  8
TLINE
  5
311
 10
7644.50
 20
1709.14
 30
0.000000
  70
    32
  0
VERTEX
  8
TLINE
  5
312
 10
7645.72
 20
1708.75
 30
0.000000
  70
    32
  0
VERTEX
  8
TLINE
  5
313
 10
7646.96
 20
1708.37
 30
0.000000
  70
    32
  0
VERTEX
  8
TLINE
  5
314
 10
7648.22
 20
1708.01
 30
0.000000
  70
    32
  0
VERTEX
  8
TLINE
  5
315
 10
7649.50
 20
1707.67
 30
0.000000
  70
    32
  0
VERTEX
  8
TLINE
  5
316
 10
7650.79
 20
1707.34
 30
0.000000
  70
    32
  0
VERTEX
  8
TLINE
  5
317
 10
7652.10
 20
1707.03
 30
0.000000
  70
    32
  0
VERTEX
  8
TLINE
  5
318
 10
7653.42
 20
1706.74
 30
0.000000
  70
    32
  0
VERTEX
  8
TLINE
  5
319
 10
7654.76
 20
1706.46
 30
0.000000
  70
    32
  0
VERTEX
  8
TLINE
  5
31A
 10
7656.11
 20
1706.20
 30
0.000000
  70
    32
  0
VERTEX
  8
TLINE
  5
31B
 10
7657.47
 20
1705.96
 30
0.000000
  70
    32
  0
VERTEX
  8
TLINE
  5
31C
 10
7658.84
 20
1705.73
 30
0.000000
  70
    32
  0
VERTEX
  8
TLINE
  5
31D
 10
7660.22
 20
1705.52
 30
0.000000
  70
    32
  0
VERTEX
  8
TLINE
  5
31E
 10
7661.62
 20
1705.33
 30
0.000000
  70
    32
  0
VERTEX
  8
TLINE
  5
31F
 10
7663.01
 20
1705.16
 30
0.000000
  70
    32
  0
VERTEX
  8
TLINE
  5
320
 10
7664.42
 20
1705.01
 30
0.000000
  70
    32
  0
VERTEX
  8
TLINE
  5
321
 10
7665.84
 20
1704.87
 30
0.000000
  70
    32
  0
VERTEX
  8
TLINE
  5
322
 10
7667.26
 20
1704.75
 30
0.000000
  70
    32
  0
VERTEX
  8
TLINE
  5
323
 10
7668.68
 20
1704.65
 30
0.000000
  70
    32
  0
VERTEX
  8
TLINE
  5
324
 10
7670.11
 20
1704.57
 30
0.000000
  70
    32
  0
VERTEX
  8
TLINE
  5
325
 10
7671.55
 20
1704.50
 30
0.000000
  70
    32
  0
VERTEX
  8
TLINE
  5
326
 10
7672.98
 20
1704.46
 30
0.000000
  70
    32
  0
VERTEX
  8
TLINE
  5
327
 10
7674.42
 20
1704.43
 30
0.000000
  70
    32
  0
VERTEX
  8
TLINE
  5
328
 10
7675.86
 20
1704.42
 30
0.000000
  70
    32
  0
VERTEX
  8
TLINE
  5
329
 10
7677.30
 20
1704.43
 30
0.000000
  70
    32
  0
VERTEX
  8
TLINE
  5
32A
 10
7678.74
 20
1704.46
 30
0.000000
  70
    32
  0
VERTEX
  8
TLINE
  5
32B
 10
7680.17
 20
1704.50
 30
0.000000
  70
    32
  0
VERTEX
  8
TLINE
  5
32C
 10
7681.61
 20
1704.57
 30
0.000000
  70
    32
  0
VERTEX
  8
TLINE
  5
32D
 10
7683.04
 20
1704.65
 30
0.000000
  70
    32
  0
VERTEX
  8
TLINE
  5
32E
 10
7684.46
 20
1704.75
 30
0.000000
  70
    32
  0
VERTEX
  8
TLINE
  5
32F
 10
7685.88
 20
1704.87
 30
0.000000
  70
    32
  0
VERTEX
  8
TLINE
  5
330
 10
7687.30
 20
1705.01
 30
0.000000
  70
    32
  0
VERTEX
  8
TLINE
  5
331
 10
7688.71
 20
1705.16
 30
0.000000
  70
    32
  0
VERTEX
  8
TLINE
  5
332
 10
7690.11
 20
1705.33
 30
0.000000
  70
    32
  0
VERTEX
  8
TLINE
  5
333
 10
7691.50
 20
1705.52
 30
0.000000
  70
    32
  0
VERTEX
  8
TLINE
  5
334
 10
7692.88
 20
1705.73
 30
0.000000
  70
    32
  0
VERTEX
  8
TLINE
  5
335
 10
7694.25
 20
1705.96
 30
0.000000
  70
    32
  0
VERTEX
  8
TLINE
  5
336
 10
7695.61
 20
1706.20
 30
0.000000
  70
    32
  0
VERTEX
  8
TLINE
  5
337
 10
7696.96
 20
1706.46
 30
0.000000
  70
    32
  0
VERTEX
  8
TLINE
  5
338
 10
7698.30
 20
1706.74
 30
0.000000
  70
    32
  0
VERTEX
  8
TLINE
  5
339
 10
7699.62
 20
1707.03
 30
0.000000
  70
    32
  0
VERTEX
  8
TLINE
  5
33A
 10
7700.93
 20
1707.34
 30
0.000000
  70
    32
  0
VERTEX
  8
TLINE
  5
33B
 10
7702.22
 20
1707.67
 30
0.000000
  70
    32
  0
VERTEX
  8
TLINE
  5
33C
 10
7703.50
 20
1708.01
 30
0.000000
  70
    32
  0
VERTEX
  8
TLINE
  5
33D
 10
7704.76
 20
1708.37
 30
0.000000
  70
    32
  0
VERTEX
  8
TLINE
  5
33E
 10
7706.00
 20
1708.75
 30
0.000000
  70
    32
  0
VERTEX
  8
TLINE
  5
33F
 10
7707.23
 20
1709.14
 30
0.000000
  70
    32
  0
VERTEX
  8
TLINE
  5
340
 10
7708.43
 20
1709.54
 30
0.000000
  70
    32
  0
VERTEX
  8
TLINE
  5
341
 10
7709.62
 20
1709.97
 30
0.000000
  70
    32
  0
VERTEX
  8
TLINE
  5
342
 10
7710.78
 20
1710.40
 30
0.000000
  70
    32
  0
VERTEX
  8
TLINE
  5
343
 10
7711.93
 20
1710.86
 30
0.000000
  70
    32
  0
VERTEX
  8
TLINE
  5
344
 10
7713.05
 20
1711.32
 30
0.000000
  70
    32
  0
VERTEX
  8
TLINE
  5
345
 10
7714.15
 20
1711.80
 30
0.000000
  70
    32
  0
VERTEX
  8
TLINE
  5
346
 10
7715.23
 20
1712.30
 30
0.000000
  70
    32
  0
VERTEX
  8
TLINE
  5
347
 10
7716.29
 20
1712.80
 30
0.000000
  70
    32
  0
VERTEX
  8
TLINE
  5
348
 10
7717.32
 20
1713.33
 30
0.000000
  70
    32
  0
VERTEX
  8
TLINE
  5
349
 10
7718.32
 20
1713.86
 30
0.000000
  70
    32
  0
VERTEX
  8
TLINE
  5
34A
 10
7719.30
 20
1714.41
 30
0.000000
  70
    32
  0
VERTEX
  8
TLINE
  5
34B
 10
7720.25
 20
1714.96
 30
0.000000
  70
    32
  0
VERTEX
  8
TLINE
  5
34C
 10
7721.18
 20
1715.54
 30
0.000000
  70
    32
  0
VERTEX
  8
TLINE
  5
34D
 10
7722.08
 20
1716.12
 30
0.000000
  70
    32
  0
VERTEX
  8
TLINE
  5
34E
 10
7722.95
 20
1716.71
 30
0.000000
  70
    32
  0
VERTEX
  8
TLINE
  5
34F
 10
7723.79
 20
1717.32
 30
0.000000
  70
    32
  0
VERTEX
  8
TLINE
  5
350
 10
7724.61
 20
1717.93
 30
0.000000
  70
    32
  0
VERTEX
  8
TLINE
  5
351
 10
7725.39
 20
1718.56
 30
0.000000
  70
    32
  0
VERTEX
  8
TLINE
  5
352
 10
7726.15
 20
1719.19
 30
0.000000
  70
    32
  0
VERTEX
  8
TLINE
  5
353
 10
7726.87
 20
1719.84
 30
0.000000
  70
    32
  0
VERTEX
  8
TLINE
  5
354
 10
7727.56
 20
1720.49
 30
0.000000
  70
    32
  0
VERTEX
  8
TLINE
  5
355
 10
7728.23
 20
1721.15
 30
0.000000
  70
    32
  0
VERTEX
  8
TLINE
  5
356
 10
7728.86
 20
1721.82
 30
0.000000
  70
    32
  0
VERTEX
  8
TLINE
  5
357
 10
7729.46
 20
1722.50
 30
0.000000
  70
    32
  0
VERTEX
  8
TLINE
  5
358
 10
7730.02
 20
1723.19
 30
0.000000
  70
    32
  0
VERTEX
  8
TLINE
  5
359
 10
7730.56
 20
1723.88
 30
0.000000
  70
    32
  0
VERTEX
  8
TLINE
  5
35A
 10
7731.06
 20
1724.58
 30
0.000000
  70
    32
  0
VERTEX
  8
TLINE
  5
35B
 10
7731.53
 20
1725.28
 30
0.000000
  70
    32
  0
VERTEX
  8
TLINE
  5
35C
 10
7731.96
 20
1726.00
 30
0.000000
  70
    32
  0
VERTEX
  8
TLINE
  5
35D
 10
7732.36
 20
1726.71
 30
0.000000
  70
    32
  0
VERTEX
  8
TLINE
  5
35E
 10
7732.73
 20
1727.43
 30
0.000000
  70
    32
  0
VERTEX
  8
TLINE
  5
35F
 10
7733.06
 20
1728.16
 30
0.000000
  70
    32
  0
VERTEX
  8
TLINE
  5
360
 10
7733.36
 20
1728.89
 30
0.000000
  70
    32
  0
VERTEX
  8
TLINE
  5
361
 10
7733.62
 20
1729.62
 30
0.000000
  70
    32
  0
VERTEX
  8
TLINE
  5
362
 10
7733.85
 20
1730.36
 30
0.000000
  70
    32
  0
VERTEX
  8
TLINE
  5
363
 10
7734.05
 20
1731.10
 30
0.000000
  70
    32
  0
VERTEX
  8
TLINE
  5
364
 10
7734.20
 20
1731.84
 30
0.000000
  70
    32
  0
VERTEX
  8
TLINE
  5
365
 10
7734.33
 20
1732.58
 30
0.000000
  70
    32
  0
VERTEX
  8
TLINE
  5
366
 10
7734.42
 20
1733.33
 30
0.000000
  70
    32
  0
VERTEX
  8
TLINE
  5
367
 10
7734.47
 20
1734.07
 30
0.000000
  70
    32
  0
VERTEX
  8
TLINE
  5
368
 10
7734.49
 20
1734.82
 30
0.000000
  70
    32
  0
SEQEND
  8
TLINE
  5
369
  0
LINE
  5
109
  8
TLINE
 10
7617.2335302868278
 20
1746.752732838318
 30
0.0
 11
7617.2335302868278
 21
1734.8205216491731
 31
0.0
  0
LINE
  5
10A
  8
TLINE
 10
7734.4866783161233
 20
1746.752732838318
 30
0.0
 11
7734.4866783161233
 21
1734.8205216491731
 31
0.0
  0
POLYLINE
  5
10B
  8
HONTAIGAIKEI
 10
7641.621601453975
 20
1662.9754033639108
 30
0.0
 66
     1
 70
     8
  0
VERTEX
  8
HONTAIGAIKEI
  5
36A
 10
7641.62
 20
1662.98
 30
0.000000
  70
    32
  0
VERTEX
  8
HONTAIGAIKEI
  5
36B
 10
7641.63
 20
1662.51
 30
0.000000
  70
    32
  0
VERTEX
  8
HONTAIGAIKEI
  5
36C
 10
7641.66
 20
1662.04
 30
0.000000
  70
    32
  0
VERTEX
  8
HONTAIGAIKEI
  5
36D
 10
7641.71
 20
1661.57
 30
0.000000
  70
    32
  0
VERTEX
  8
HONTAIGAIKEI
  5
36E
 10
7641.78
 20
1661.11
 30
0.000000
  70
    32
  0
VERTEX
  8
HONTAIGAIKEI
  5
36F
 10
7641.87
 20
1660.64
 30
0.000000
  70
    32
  0
VERTEX
  8
HONTAIGAIKEI
  5
370
 10
7641.99
 20
1660.18
 30
0.000000
  70
    32
  0
VERTEX
  8
HONTAIGAIKEI
  5
371
 10
7642.12
 20
1659.72
 30
0.000000
  70
    32
  0
VERTEX
  8
HONTAIGAIKEI
  5
372
 10
7642.28
 20
1659.26
 30
0.000000
  70
    32
  0
VERTEX
  8
HONTAIGAIKEI
  5
373
 10
7642.45
 20
1658.80
 30
0.000000
  70
    32
  0
VERTEX
  8
HONTAIGAIKEI
  5
374
 10
7642.65
 20
1658.35
 30
0.000000
  70
    32
  0
VERTEX
  8
HONTAIGAIKEI
  5
375
 10
7642.87
 20
1657.89
 30
0.000000
  70
    32
  0
VERTEX
  8
HONTAIGAIKEI
  5
376
 10
7643.11
 20
1657.44
 30
0.000000
  70
    32
  0
VERTEX
  8
HONTAIGAIKEI
  5
377
 10
7643.37
 20
1657.00
 30
0.000000
  70
    32
  0
VERTEX
  8
HONTAIGAIKEI
  5
378
 10
7643.65
 20
1656.56
 30
0.000000
  70
    32
  0
VERTEX
  8
HONTAIGAIKEI
  5
379
 10
7643.95
 20
1656.12
 30
0.000000
  70
    32
  0
VERTEX
  8
HONTAIGAIKEI
  5
37A
 10
7644.27
 20
1655.68
 30
0.000000
  70
    32
  0
VERTEX
  8
HONTAIGAIKEI
  5
37B
 10
7644.61
 20
1655.25
 30
0.000000
  70
    32
  0
VERTEX
  8
HONTAIGAIKEI
  5
37C
 10
7644.97
 20
1654.83
 30
0.000000
  70
    32
  0
VERTEX
  8
HONTAIGAIKEI
  5
37D
 10
7645.35
 20
1654.41
 30
0.000000
  70
    32
  0
VERTEX
  8
HONTAIGAIKEI
  5
37E
 10
7645.74
 20
1653.99
 30
0.000000
  70
    32
  0
VERTEX
  8
HONTAIGAIKEI
  5
37F
 10
7646.16
 20
1653.58
 30
0.000000
  70
    32
  0
VERTEX
  8
HONTAIGAIKEI
  5
380
 10
7646.60
 20
1653.18
 30
0.000000
  70
    32
  0
VERTEX
  8
HONTAIGAIKEI
  5
381
 10
7647.05
 20
1652.78
 30
0.000000
  70
    32
  0
VERTEX
  8
HONTAIGAIKEI
  5
382
 10
7647.52
 20
1652.38
 30
0.000000
  70
    32
  0
VERTEX
  8
HONTAIGAIKEI
  5
383
 10
7648.01
 20
1652.00
 30
0.000000
  70
    32
  0
VERTEX
  8
HONTAIGAIKEI
  5
384
 10
7648.52
 20
1651.62
 30
0.000000
  70
    32
  0
VERTEX
  8
HONTAIGAIKEI
  5
385
 10
7649.04
 20
1651.25
 30
0.000000
  70
    32
  0
VERTEX
  8
HONTAIGAIKEI
  5
386
 10
7649.58
 20
1650.88
 30
0.000000
  70
    32
  0
VERTEX
  8
HONTAIGAIKEI
  5
387
 10
7650.14
 20
1650.52
 30
0.000000
  70
    32
  0
VERTEX
  8
HONTAIGAIKEI
  5
388
 10
7650.71
 20
1650.17
 30
0.000000
  70
    32
  0
VERTEX
  8
HONTAIGAIKEI
  5
389
 10
7651.30
 20
1649.83
 30
0.000000
  70
    32
  0
VERTEX
  8
HONTAIGAIKEI
  5
38A
 10
7651.91
 20
1649.49
 30
0.000000
  70
    32
  0
VERTEX
  8
HONTAIGAIKEI
  5
38B
 10
7652.53
 20
1649.17
 30
0.000000
  70
    32
  0
VERTEX
  8
HONTAIGAIKEI
  5
38C
 10
7653.16
 20
1648.85
 30
0.000000
  70
    32
  0
VERTEX
  8
HONTAIGAIKEI
  5
38D
 10
7653.81
 20
1648.54
 30
0.000000
  70
    32
  0
VERTEX
  8
HONTAIGAIKEI
  5
38E
 10
7654.48
 20
1648.24
 30
0.000000
  70
    32
  0
VERTEX
  8
HONTAIGAIKEI
  5
38F
 10
7655.15
 20
1647.94
 30
0.000000
  70
    32
  0
VERTEX
  8
HONTAIGAIKEI
  5
390
 10
7655.84
 20
1647.66
 30
0.000000
  70
    32
  0
VERTEX
  8
HONTAIGAIKEI
  5
391
 10
7656.55
 20
1647.38
 30
0.000000
  70
    32
  0
VERTEX
  8
HONTAIGAIKEI
  5
392
 10
7657.26
 20
1647.12
 30
0.000000
  70
    32
  0
VERTEX
  8
HONTAIGAIKEI
  5
393
 10
7657.99
 20
1646.86
 30
0.000000
  70
    32
  0
VERTEX
  8
HONTAIGAIKEI
  5
394
 10
7658.73
 20
1646.62
 30
0.000000
  70
    32
  0
VERTEX
  8
HONTAIGAIKEI
  5
395
 10
7659.48
 20
1646.38
 30
0.000000
  70
    32
  0
VERTEX
  8
HONTAIGAIKEI
  5
396
 10
7660.24
 20
1646.16
 30
0.000000
  70
    32
  0
VERTEX
  8
HONTAIGAIKEI
  5
397
 10
7661.01
 20
1645.94
 30
0.000000
  70
    32
  0
VERTEX
  8
HONTAIGAIKEI
  5
398
 10
7661.79
 20
1645.74
 30
0.000000
  70
    32
  0
VERTEX
  8
HONTAIGAIKEI
  5
399
 10
7662.57
 20
1645.54
 30
0.000000
  70
    32
  0
VERTEX
  8
HONTAIGAIKEI
  5
39A
 10
7663.37
 20
1645.36
 30
0.000000
  70
    32
  0
VERTEX
  8
HONTAIGAIKEI
  5
39B
 10
7664.18
 20
1645.18
 30
0.000000
  70
    32
  0
VERTEX
  8
HONTAIGAIKEI
  5
39C
 10
7664.99
 20
1645.02
 30
0.000000
  70
    32
  0
VERTEX
  8
HONTAIGAIKEI
  5
39D
 10
7665.81
 20
1644.87
 30
0.000000
  70
    32
  0
VERTEX
  8
HONTAIGAIKEI
  5
39E
 10
7666.64
 20
1644.72
 30
0.000000
  70
    32
  0
VERTEX
  8
HONTAIGAIKEI
  5
39F
 10
7667.47
 20
1644.59
 30
0.000000
  70
    32
  0
VERTEX
  8
HONTAIGAIKEI
  5
3A0
 10
7668.31
 20
1644.47
 30
0.000000
  70
    32
  0
VERTEX
  8
HONTAIGAIKEI
  5
3A1
 10
7669.16
 20
1644.37
 30
0.000000
  70
    32
  0
VERTEX
  8
HONTAIGAIKEI
  5
3A2
 10
7670.01
 20
1644.27
 30
0.000000
  70
    32
  0
VERTEX
  8
HONTAIGAIKEI
  5
3A3
 10
7670.86
 20
1644.18
 30
0.000000
  70
    32
  0
VERTEX
  8
HONTAIGAIKEI
  5
3A4
 10
7671.72
 20
1644.11
 30
0.000000
  70
    32
  0
VERTEX
  8
HONTAIGAIKEI
  5
3A5
 10
7672.58
 20
1644.05
 30
0.000000
  70
    32
  0
VERTEX
  8
HONTAIGAIKEI
  5
3A6
 10
7673.44
 20
1643.99
 30
0.000000
  70
    32
  0
VERTEX
  8
HONTAIGAIKEI
  5
3A7
 10
7674.30
 20
1643.95
 30
0.000000
  70
    32
  0
VERTEX
  8
HONTAIGAIKEI
  5
3A8
 10
7675.17
 20
1643.93
 30
0.000000
  70
    32
  0
VERTEX
  8
HONTAIGAIKEI
  5
3A9
 10
7676.04
 20
1643.91
 30
0.000000
  70
    32
  0
VERTEX
  8
HONTAIGAIKEI
  5
3AA
 10
7676.91
 20
1643.90
 30
0.000000
  70
    32
  0
VERTEX
  8
HONTAIGAIKEI
  5
3AB
 10
7677.77
 20
1643.91
 30
0.000000
  70
    32
  0
VERTEX
  8
HONTAIGAIKEI
  5
3AC
 10
7678.64
 20
1643.93
 30
0.000000
  70
    32
  0
VERTEX
  8
HONTAIGAIKEI
  5
3AD
 10
7679.51
 20
1643.95
 30
0.000000
  70
    32
  0
VERTEX
  8
HONTAIGAIKEI
  5
3AE
 10
7680.37
 20
1643.99
 30
0.000000
  70
    32
  0
VERTEX
  8
HONTAIGAIKEI
  5
3AF
 10
7681.24
 20
1644.05
 30
0.000000
  70
    32
  0
VERTEX
  8
HONTAIGAIKEI
  5
3B0
 10
7682.10
 20
1644.11
 30
0.000000
  70
    32
  0
VERTEX
  8
HONTAIGAIKEI
  5
3B1
 10
7682.95
 20
1644.18
 30
0.000000
  70
    32
  0
VERTEX
  8
HONTAIGAIKEI
  5
3B2
 10
7683.81
 20
1644.27
 30
0.000000
  70
    32
  0
VERTEX
  8
HONTAIGAIKEI
  5
3B3
 10
7684.66
 20
1644.37
 30
0.000000
  70
    32
  0
VERTEX
  8
HONTAIGAIKEI
  5
3B4
 10
7685.50
 20
1644.47
 30
0.000000
  70
    32
  0
VERTEX
  8
HONTAIGAIKEI
  5
3B5
 10
7686.34
 20
1644.59
 30
0.000000
  70
    32
  0
VERTEX
  8
HONTAIGAIKEI
  5
3B6
 10
7687.17
 20
1644.72
 30
0.000000
  70
    32
  0
VERTEX
  8
HONTAIGAIKEI
  5
3B7
 10
7688.00
 20
1644.87
 30
0.000000
  70
    32
  0
VERTEX
  8
HONTAIGAIKEI
  5
3B8
 10
7688.82
 20
1645.02
 30
0.000000
  70
    32
  0
VERTEX
  8
HONTAIGAIKEI
  5
3B9
 10
7689.63
 20
1645.18
 30
0.000000
  70
    32
  0
VERTEX
  8
HONTAIGAIKEI
  5
3BA
 10
7690.44
 20
1645.36
 30
0.000000
  70
    32
  0
VERTEX
  8
HONTAIGAIKEI
  5
3BB
 10
7691.24
 20
1645.54
 30
0.000000
  70
    32
  0
VERTEX
  8
HONTAIGAIKEI
  5
3BC
 10
7692.03
 20
1645.74
 30
0.000000
  70
    32
  0
VERTEX
  8
HONTAIGAIKEI
  5
3BD
 10
7692.81
 20
1645.94
 30
0.000000
  70
    32
  0
VERTEX
  8
HONTAIGAIKEI
  5
3BE
 10
7693.58
 20
1646.16
 30
0.000000
  70
    32
  0
VERTEX
  8
HONTAIGAIKEI
  5
3BF
 10
7694.34
 20
1646.38
 30
0.000000
  70
    32
  0
VERTEX
  8
HONTAIGAIKEI
  5
3C0
 10
7695.09
 20
1646.62
 30
0.000000
  70
    32
  0
VERTEX
  8
HONTAIGAIKEI
  5
3C1
 10
7695.82
 20
1646.86
 30
0.000000
  70
    32
  0
VERTEX
  8
HONTAIGAIKEI
  5
3C2
 10
7696.55
 20
1647.12
 30
0.000000
  70
    32
  0
VERTEX
  8
HONTAIGAIKEI
  5
3C3
 10
7697.27
 20
1647.38
 30
0.000000
  70
    32
  0
VERTEX
  8
HONTAIGAIKEI
  5
3C4
 10
7697.97
 20
1647.66
 30
0.000000
  70
    32
  0
VERTEX
  8
HONTAIGAIKEI
  5
3C5
 10
7698.66
 20
1647.94
 30
0.000000
  70
    32
  0
VERTEX
  8
HONTAIGAIKEI
  5
3C6
 10
7699.34
 20
1648.24
 30
0.000000
  70
    32
  0
VERTEX
  8
HONTAIGAIKEI
  5
3C7
 10
7700.00
 20
1648.54
 30
0.000000
  70
    32
  0
VERTEX
  8
HONTAIGAIKEI
  5
3C8
 10
7700.65
 20
1648.85
 30
0.000000
  70
    32
  0
VERTEX
  8
HONTAIGAIKEI
  5
3C9
 10
7701.28
 20
1649.17
 30
0.000000
  70
    32
  0
VERTEX
  8
HONTAIGAIKEI
  5
3CA
 10
7701.90
 20
1649.49
 30
0.000000
  70
    32
  0
VERTEX
  8
HONTAIGAIKEI
  5
3CB
 10
7702.51
 20
1649.83
 30
0.000000
  70
    32
  0
VERTEX
  8
HONTAIGAIKEI
  5
3CC
 10
7703.10
 20
1650.17
 30
0.000000
  70
    32
  0
VERTEX
  8
HONTAIGAIKEI
  5
3CD
 10
7703.67
 20
1650.52
 30
0.000000
  70
    32
  0
VERTEX
  8
HONTAIGAIKEI
  5
3CE
 10
7704.23
 20
1650.88
 30
0.000000
  70
    32
  0
VERTEX
  8
HONTAIGAIKEI
  5
3CF
 10
7704.77
 20
1651.25
 30
0.000000
  70
    32
  0
VERTEX
  8
HONTAIGAIKEI
  5
3D0
 10
7705.29
 20
1651.62
 30
0.000000
  70
    32
  0
VERTEX
  8
HONTAIGAIKEI
  5
3D1
 10
7705.80
 20
1652.00
 30
0.000000
  70
    32
  0
VERTEX
  8
HONTAIGAIKEI
  5
3D2
 10
7706.29
 20
1652.38
 30
0.000000
  70
    32
  0
VERTEX
  8
HONTAIGAIKEI
  5
3D3
 10
7706.76
 20
1652.78
 30
0.000000
  70
    32
  0
VERTEX
  8
HONTAIGAIKEI
  5
3D4
 10
7707.22
 20
1653.18
 30
0.000000
  70
    32
  0
VERTEX
  8
HONTAIGAIKEI
  5
3D5
 10
7707.65
 20
1653.58
 30
0.000000
  70
    32
  0
VERTEX
  8
HONTAIGAIKEI
  5
3D6
 10
7708.07
 20
1653.99
 30
0.000000
  70
    32
  0
VERTEX
  8
HONTAIGAIKEI
  5
3D7
 10
7708.47
 20
1654.41
 30
0.000000
  70
    32
  0
VERTEX
  8
HONTAIGAIKEI
  5
3D8
 10
7708.84
 20
1654.83
 30
0.000000
  70
    32
  0
VERTEX
  8
HONTAIGAIKEI
  5
3D9
 10
7709.20
 20
1655.25
 30
0.000000
  70
    32
  0
VERTEX
  8
HONTAIGAIKEI
  5
3DA
 10
7709.54
 20
1655.68
 30
0.000000
  70
    32
  0
VERTEX
  8
HONTAIGAIKEI
  5
3DB
 10
7709.86
 20
1656.12
 30
0.000000
  70
    32
  0
VERTEX
  8
HONTAIGAIKEI
  5
3DC
 10
7710.16
 20
1656.56
 30
0.000000
  70
    32
  0
VERTEX
  8
HONTAIGAIKEI
  5
3DD
 10
7710.44
 20
1657.00
 30
0.000000
  70
    32
  0
VERTEX
  8
HONTAIGAIKEI
  5
3DE
 10
7710.70
 20
1657.44
 30
0.000000
  70
    32
  0
VERTEX
  8
HONTAIGAIKEI
  5
3DF
 10
7710.94
 20
1657.89
 30
0.000000
  70
    32
  0
VERTEX
  8
HONTAIGAIKEI
  5
3E0
 10
7711.16
 20
1658.35
 30
0.000000
  70
    32
  0
VERTEX
  8
HONTAIGAIKEI
  5
3E1
 10
7711.36
 20
1658.80
 30
0.000000
  70
    32
  0
VERTEX
  8
HONTAIGAIKEI
  5
3E2
 10
7711.54
 20
1659.26
 30
0.000000
  70
    32
  0
VERTEX
  8
HONTAIGAIKEI
  5
3E3
 10
7711.69
 20
1659.72
 30
0.000000
  70
    32
  0
VERTEX
  8
HONTAIGAIKEI
  5
3E4
 10
7711.83
 20
1660.18
 30
0.000000
  70
    32
  0
VERTEX
  8
HONTAIGAIKEI
  5
3E5
 10
7711.94
 20
1660.64
 30
0.000000
  70
    32
  0
VERTEX
  8
HONTAIGAIKEI
  5
3E6
 10
7712.03
 20
1661.11
 30
0.000000
  70
    32
  0
VERTEX
  8
HONTAIGAIKEI
  5
3E7
 10
7712.10
 20
1661.57
 30
0.000000
  70
    32
  0
VERTEX
  8
HONTAIGAIKEI
  5
3E8
 10
7712.15
 20
1662.04
 30
0.000000
  70
    32
  0
VERTEX
  8
HONTAIGAIKEI
  5
3E9
 10
7712.18
 20
1662.51
 30
0.000000
  70
    32
  0
VERTEX
  8
HONTAIGAIKEI
  5
3EA
 10
7712.19
 20
1662.98
 30
0.000000
  70
    32
  0
SEQEND
  8
HONTAIGAIKEI
  5
3EB
  0
LINE
  5
10C
  8
HONTAIGAIKEI
 10
7712.1900888396594
 20
1662.975403363911
 30
0.0
 11
11196.90635670257
 21
1662.975403363911
 31
0.0
  0
LINE
  5
10D
  8
HONTAIGAIKEI
 10
7641.6216014539777
 20
1662.975403363911
 30
0.0
 11
7641.6216014539777
 21
1710.1442775721371
 31
0.0
  0
LINE
  5
10E
  8
HONTAIGAIKEI
 10
7712.1900888396594
 20
1662.975403363911
 30
0.0
 11
7712.1900888396594
 21
1710.961874121567
 31
0.0
  0
POLYLINE
  5
10F
  8
HONTAIGAIKEI
 10
7879.8161063644275
 20
1662.975403363911
 30
0.0
 66
     1
 70
     8
  0
VERTEX
  8
HONTAIGAIKEI
  5
3EC
 10
7879.82
 20
1662.98
 30
0.000000
  70
    32
  0
VERTEX
  8
HONTAIGAIKEI
  5
3ED
 10
7879.88
 20
1662.46
 30
0.000000
  70
    32
  0
VERTEX
  8
HONTAIGAIKEI
  5
3EE
 10
7879.98
 20
1661.94
 30
0.000000
  70
    32
  0
VERTEX
  8
HONTAIGAIKEI
  5
3EF
 10
7880.10
 20
1661.43
 30
0.000000
  70
    32
  0
VERTEX
  8
HONTAIGAIKEI
  5
3F0
 10
7880.24
 20
1660.92
 30
0.000000
  70
    32
  0
VERTEX
  8
HONTAIGAIKEI
  5
3F1
 10
7880.42
 20
1660.41
 30
0.000000
  70
    32
  0
VERTEX
  8
HONTAIGAIKEI
  5
3F2
 10
7880.62
 20
1659.90
 30
0.000000
  70
    32
  0
VERTEX
  8
HONTAIGAIKEI
  5
3F3
 10
7880.85
 20
1659.39
 30
0.000000
  70
    32
  0
VERTEX
  8
HONTAIGAIKEI
  5
3F4
 10
7881.10
 20
1658.89
 30
0.000000
  70
    32
  0
VERTEX
  8
HONTAIGAIKEI
  5
3F5
 10
7881.38
 20
1658.38
 30
0.000000
  70
    32
  0
VERTEX
  8
HONTAIGAIKEI
  5
3F6
 10
7881.69
 20
1657.89
 30
0.000000
  70
    32
  0
VERTEX
  8
HONTAIGAIKEI
  5
3F7
 10
7882.02
 20
1657.39
 30
0.000000
  70
    32
  0
VERTEX
  8
HONTAIGAIKEI
  5
3F8
 10
7882.38
 20
1656.90
 30
0.000000
  70
    32
  0
VERTEX
  8
HONTAIGAIKEI
  5
3F9
 10
7882.76
 20
1656.41
 30
0.000000
  70
    32
  0
VERTEX
  8
HONTAIGAIKEI
  5
3FA
 10
7883.17
 20
1655.93
 30
0.000000
  70
    32
  0
VERTEX
  8
HONTAIGAIKEI
  5
3FB
 10
7883.61
 20
1655.45
 30
0.000000
  70
    32
  0
VERTEX
  8
HONTAIGAIKEI
  5
3FC
 10
7884.07
 20
1654.98
 30
0.000000
  70
    32
  0
VERTEX
  8
HONTAIGAIKEI
  5
3FD
 10
7884.55
 20
1654.51
 30
0.000000
  70
    32
  0
VERTEX
  8
HONTAIGAIKEI
  5
3FE
 10
7885.06
 20
1654.05
 30
0.000000
  70
    32
  0
VERTEX
  8
HONTAIGAIKEI
  5
3FF
 10
7885.59
 20
1653.59
 30
0.000000
  70
    32
  0
VERTEX
  8
HONTAIGAIKEI
  5
400
 10
7886.15
 20
1653.14
 30
0.000000
  70
    32
  0
VERTEX
  8
HONTAIGAIKEI
  5
401
 10
7886.73
 20
1652.70
 30
0.000000
  70
    32
  0
VERTEX
  8
HONTAIGAIKEI
  5
402
 10
7887.33
 20
1652.26
 30
0.000000
  70
    32
  0
VERTEX
  8
HONTAIGAIKEI
  5
403
 10
7887.96
 20
1651.83
 30
0.000000
  70
    32
  0
VERTEX
  8
HONTAIGAIKEI
  5
404
 10
7888.60
 20
1651.40
 30
0.000000
  70
    32
  0
VERTEX
  8
HONTAIGAIKEI
  5
405
 10
7889.27
 20
1650.98
 30
0.000000
  70
    32
  0
VERTEX
  8
HONTAIGAIKEI
  5
406
 10
7889.97
 20
1650.57
 30
0.000000
  70
    32
  0
VERTEX
  8
HONTAIGAIKEI
  5
407
 10
7890.68
 20
1650.17
 30
0.000000
  70
    32
  0
VERTEX
  8
HONTAIGAIKEI
  5
408
 10
7891.41
 20
1649.78
 30
0.000000
  70
    32
  0
VERTEX
  8
HONTAIGAIKEI
  5
409
 10
7892.17
 20
1649.39
 30
0.000000
  70
    32
  0
VERTEX
  8
HONTAIGAIKEI
  5
40A
 10
7892.94
 20
1649.01
 30
0.000000
  70
    32
  0
VERTEX
  8
HONTAIGAIKEI
  5
40B
 10
7893.74
 20
1648.64
 30
0.000000
  70
    32
  0
VERTEX
  8
HONTAIGAIKEI
  5
40C
 10
7894.55
 20
1648.28
 30
0.000000
  70
    32
  0
VERTEX
  8
HONTAIGAIKEI
  5
40D
 10
7895.38
 20
1647.93
 30
0.000000
  70
    32
  0
VERTEX
  8
HONTAIGAIKEI
  5
40E
 10
7896.23
 20
1647.58
 30
0.000000
  70
    32
  0
VERTEX
  8
HONTAIGAIKEI
  5
40F
 10
7897.10
 20
1647.25
 30
0.000000
  70
    32
  0
VERTEX
  8
HONTAIGAIKEI
  5
410
 10
7897.99
 20
1646.92
 30
0.000000
  70
    32
  0
VERTEX
  8
HONTAIGAIKEI
  5
411
 10
7898.89
 20
1646.61
 30
0.000000
  70
    32
  0
VERTEX
  8
HONTAIGAIKEI
  5
412
 10
7899.81
 20
1646.30
 30
0.000000
  70
    32
  0
VERTEX
  8
HONTAIGAIKEI
  5
413
 10
7900.74
 20
1646.01
 30
0.000000
  70
    32
  0
VERTEX
  8
HONTAIGAIKEI
  5
414
 10
7901.69
 20
1645.72
 30
0.000000
  70
    32
  0
VERTEX
  8
HONTAIGAIKEI
  5
415
 10
7902.66
 20
1645.45
 30
0.000000
  70
    32
  0
VERTEX
  8
HONTAIGAIKEI
  5
416
 10
7903.63
 20
1645.19
 30
0.000000
  70
    32
  0
VERTEX
  8
HONTAIGAIKEI
  5
417
 10
7904.63
 20
1644.93
 30
0.000000
  70
    32
  0
VERTEX
  8
HONTAIGAIKEI
  5
418
 10
7905.63
 20
1644.69
 30
0.000000
  70
    32
  0
VERTEX
  8
HONTAIGAIKEI
  5
419
 10
7906.65
 20
1644.46
 30
0.000000
  70
    32
  0
VERTEX
  8
HONTAIGAIKEI
  5
41A
 10
7907.68
 20
1644.24
 30
0.000000
  70
    32
  0
VERTEX
  8
HONTAIGAIKEI
  5
41B
 10
7908.72
 20
1644.03
 30
0.000000
  70
    32
  0
VERTEX
  8
HONTAIGAIKEI
  5
41C
 10
7909.77
 20
1643.83
 30
0.000000
  70
    32
  0
VERTEX
  8
HONTAIGAIKEI
  5
41D
 10
7910.83
 20
1643.64
 30
0.000000
  70
    32
  0
VERTEX
  8
HONTAIGAIKEI
  5
41E
 10
7911.90
 20
1643.47
 30
0.000000
  70
    32
  0
VERTEX
  8
HONTAIGAIKEI
  5
41F
 10
7912.98
 20
1643.31
 30
0.000000
  70
    32
  0
VERTEX
  8
HONTAIGAIKEI
  5
420
 10
7914.07
 20
1643.15
 30
0.000000
  70
    32
  0
VERTEX
  8
HONTAIGAIKEI
  5
421
 10
7915.16
 20
1643.01
 30
0.000000
  70
    32
  0
VERTEX
  8
HONTAIGAIKEI
  5
422
 10
7916.26
 20
1642.89
 30
0.000000
  70
    32
  0
VERTEX
  8
HONTAIGAIKEI
  5
423
 10
7917.37
 20
1642.77
 30
0.000000
  70
    32
  0
VERTEX
  8
HONTAIGAIKEI
  5
424
 10
7918.49
 20
1642.67
 30
0.000000
  70
    32
  0
VERTEX
  8
HONTAIGAIKEI
  5
425
 10
7919.61
 20
1642.57
 30
0.000000
  70
    32
  0
VERTEX
  8
HONTAIGAIKEI
  5
426
 10
7920.73
 20
1642.49
 30
0.000000
  70
    32
  0
VERTEX
  8
HONTAIGAIKEI
  5
427
 10
7921.86
 20
1642.43
 30
0.000000
  70
    32
  0
VERTEX
  8
HONTAIGAIKEI
  5
428
 10
7922.99
 20
1642.37
 30
0.000000
  70
    32
  0
VERTEX
  8
HONTAIGAIKEI
  5
429
 10
7924.12
 20
1642.33
 30
0.000000
  70
    32
  0
VERTEX
  8
HONTAIGAIKEI
  5
42A
 10
7925.26
 20
1642.30
 30
0.000000
  70
    32
  0
VERTEX
  8
HONTAIGAIKEI
  5
42B
 10
7926.40
 20
1642.28
 30
0.000000
  70
    32
  0
VERTEX
  8
HONTAIGAIKEI
  5
42C
 10
7927.53
 20
1642.27
 30
0.000000
  70
    32
  0
VERTEX
  8
HONTAIGAIKEI
  5
42D
 10
7928.67
 20
1642.28
 30
0.000000
  70
    32
  0
VERTEX
  8
HONTAIGAIKEI
  5
42E
 10
7929.81
 20
1642.30
 30
0.000000
  70
    32
  0
VERTEX
  8
HONTAIGAIKEI
  5
42F
 10
7930.94
 20
1642.33
 30
0.000000
  70
    32
  0
VERTEX
  8
HONTAIGAIKEI
  5
430
 10
7932.08
 20
1642.37
 30
0.000000
  70
    32
  0
VERTEX
  8
HONTAIGAIKEI
  5
431
 10
7933.21
 20
1642.43
 30
0.000000
  70
    32
  0
VERTEX
  8
HONTAIGAIKEI
  5
432
 10
7934.34
 20
1642.49
 30
0.000000
  70
    32
  0
VERTEX
  8
HONTAIGAIKEI
  5
433
 10
7935.46
 20
1642.57
 30
0.000000
  70
    32
  0
VERTEX
  8
HONTAIGAIKEI
  5
434
 10
7936.58
 20
1642.67
 30
0.000000
  70
    32
  0
VERTEX
  8
HONTAIGAIKEI
  5
435
 10
7937.70
 20
1642.77
 30
0.000000
  70
    32
  0
VERTEX
  8
HONTAIGAIKEI
  5
436
 10
7938.80
 20
1642.89
 30
0.000000
  70
    32
  0
VERTEX
  8
HONTAIGAIKEI
  5
437
 10
7939.91
 20
1643.01
 30
0.000000
  70
    32
  0
VERTEX
  8
HONTAIGAIKEI
  5
438
 10
7941.00
 20
1643.15
 30
0.000000
  70
    32
  0
VERTEX
  8
HONTAIGAIKEI
  5
439
 10
7942.09
 20
1643.31
 30
0.000000
  70
    32
  0
VERTEX
  8
HONTAIGAIKEI
  5
43A
 10
7943.17
 20
1643.47
 30
0.000000
  70
    32
  0
VERTEX
  8
HONTAIGAIKEI
  5
43B
 10
7944.24
 20
1643.64
 30
0.000000
  70
    32
  0
VERTEX
  8
HONTAIGAIKEI
  5
43C
 10
7945.30
 20
1643.83
 30
0.000000
  70
    32
  0
VERTEX
  8
HONTAIGAIKEI
  5
43D
 10
7946.35
 20
1644.03
 30
0.000000
  70
    32
  0
VERTEX
  8
HONTAIGAIKEI
  5
43E
 10
7947.39
 20
1644.24
 30
0.000000
  70
    32
  0
VERTEX
  8
HONTAIGAIKEI
  5
43F
 10
7948.42
 20
1644.46
 30
0.000000
  70
    32
  0
VERTEX
  8
HONTAIGAIKEI
  5
440
 10
7949.44
 20
1644.69
 30
0.000000
  70
    32
  0
VERTEX
  8
HONTAIGAIKEI
  5
441
 10
7950.44
 20
1644.93
 30
0.000000
  70
    32
  0
VERTEX
  8
HONTAIGAIKEI
  5
442
 10
7951.43
 20
1645.19
 30
0.000000
  70
    32
  0
VERTEX
  8
HONTAIGAIKEI
  5
443
 10
7952.41
 20
1645.45
 30
0.000000
  70
    32
  0
VERTEX
  8
HONTAIGAIKEI
  5
444
 10
7953.38
 20
1645.72
 30
0.000000
  70
    32
  0
VERTEX
  8
HONTAIGAIKEI
  5
445
 10
7954.33
 20
1646.01
 30
0.000000
  70
    32
  0
VERTEX
  8
HONTAIGAIKEI
  5
446
 10
7955.26
 20
1646.30
 30
0.000000
  70
    32
  0
VERTEX
  8
HONTAIGAIKEI
  5
447
 10
7956.18
 20
1646.61
 30
0.000000
  70
    32
  0
VERTEX
  8
HONTAIGAIKEI
  5
448
 10
7957.08
 20
1646.92
 30
0.000000
  70
    32
  0
VERTEX
  8
HONTAIGAIKEI
  5
449
 10
7957.97
 20
1647.25
 30
0.000000
  70
    32
  0
VERTEX
  8
HONTAIGAIKEI
  5
44A
 10
7958.83
 20
1647.58
 30
0.000000
  70
    32
  0
VERTEX
  8
HONTAIGAIKEI
  5
44B
 10
7959.68
 20
1647.93
 30
0.000000
  70
    32
  0
VERTEX
  8
HONTAIGAIKEI
  5
44C
 10
7960.52
 20
1648.28
 30
0.000000
  70
    32
  0
VERTEX
  8
HONTAIGAIKEI
  5
44D
 10
7961.33
 20
1648.64
 30
0.000000
  70
    32
  0
VERTEX
  8
HONTAIGAIKEI
  5
44E
 10
7962.12
 20
1649.01
 30
0.000000
  70
    32
  0
VERTEX
  8
HONTAIGAIKEI
  5
44F
 10
7962.90
 20
1649.39
 30
0.000000
  70
    32
  0
VERTEX
  8
HONTAIGAIKEI
  5
450
 10
7963.65
 20
1649.78
 30
0.000000
  70
    32
  0
VERTEX
  8
HONTAIGAIKEI
  5
451
 10
7964.39
 20
1650.17
 30
0.000000
  70
    32
  0
VERTEX
  8
HONTAIGAIKEI
  5
452
 10
7965.10
 20
1650.57
 30
0.000000
  70
    32
  0
VERTEX
  8
HONTAIGAIKEI
  5
453
 10
7965.79
 20
1650.98
 30
0.000000
  70
    32
  0
VERTEX
  8
HONTAIGAIKEI
  5
454
 10
7966.46
 20
1651.40
 30
0.000000
  70
    32
  0
VERTEX
  8
HONTAIGAIKEI
  5
455
 10
7967.11
 20
1651.83
 30
0.000000
  70
    32
  0
VERTEX
  8
HONTAIGAIKEI
  5
456
 10
7967.74
 20
1652.26
 30
0.000000
  70
    32
  0
VERTEX
  8
HONTAIGAIKEI
  5
457
 10
7968.34
 20
1652.70
 30
0.000000
  70
    32
  0
VERTEX
  8
HONTAIGAIKEI
  5
458
 10
7968.92
 20
1653.14
 30
0.000000
  70
    32
  0
VERTEX
  8
HONTAIGAIKEI
  5
459
 10
7969.48
 20
1653.59
 30
0.000000
  70
    32
  0
VERTEX
  8
HONTAIGAIKEI
  5
45A
 10
7970.01
 20
1654.05
 30
0.000000
  70
    32
  0
VERTEX
  8
HONTAIGAIKEI
  5
45B
 10
7970.52
 20
1654.51
 30
0.000000
  70
    32
  0
VERTEX
  8
HONTAIGAIKEI
  5
45C
 10
7971.00
 20
1654.98
 30
0.000000
  70
    32
  0
VERTEX
  8
HONTAIGAIKEI
  5
45D
 10
7971.46
 20
1655.45
 30
0.000000
  70
    32
  0
VERTEX
  8
HONTAIGAIKEI
  5
45E
 10
7971.90
 20
1655.93
 30
0.000000
  70
    32
  0
VERTEX
  8
HONTAIGAIKEI
  5
45F
 10
7972.31
 20
1656.41
 30
0.000000
  70
    32
  0
VERTEX
  8
HONTAIGAIKEI
  5
460
 10
7972.69
 20
1656.90
 30
0.000000
  70
    32
  0
VERTEX
  8
HONTAIGAIKEI
  5
461
 10
7973.05
 20
1657.39
 30
0.000000
  70
    32
  0
VERTEX
  8
HONTAIGAIKEI
  5
462
 10
7973.38
 20
1657.89
 30
0.000000
  70
    32
  0
VERTEX
  8
HONTAIGAIKEI
  5
463
 10
7973.69
 20
1658.38
 30
0.000000
  70
    32
  0
VERTEX
  8
HONTAIGAIKEI
  5
464
 10
7973.97
 20
1658.89
 30
0.000000
  70
    32
  0
VERTEX
  8
HONTAIGAIKEI
  5
465
 10
7974.22
 20
1659.39
 30
0.000000
  70
    32
  0
VERTEX
  8
HONTAIGAIKEI
  5
466
 10
7974.45
 20
1659.90
 30
0.000000
  70
    32
  0
VERTEX
  8
HONTAIGAIKEI
  5
467
 10
7974.65
 20
1660.41
 30
0.000000
  70
    32
  0
VERTEX
  8
HONTAIGAIKEI
  5
468
 10
7974.82
 20
1660.92
 30
0.000000
  70
    32
  0
VERTEX
  8
HONTAIGAIKEI
  5
469
 10
7974.97
 20
1661.43
 30
0.000000
  70
    32
  0
VERTEX
  8
HONTAIGAIKEI
  5
46A
 10
7975.09
 20
1661.94
 30
0.000000
  70
    32
  0
VERTEX
  8
HONTAIGAIKEI
  5
46B
 10
7975.19
 20
1662.46
 30
0.000000
  70
    32
  0
VERTEX
  8
HONTAIGAIKEI
  5
46C
 10
7975.25
 20
1662.98
 30
0.000000
  70
    32
  0
SEQEND
  8
HONTAIGAIKEI
  5
46D
  0
LINE
  5
110
  8
TLINE
 10
7463.4070303766957
 20
1662.975403363911
 30
0.0
 11
7463.4070303766957
 21
1452.975403363911
 31
0.0
  0
LINE
  5
111
  8
TLINE
 10
7502.4913984834011
 20
1662.975403363911
 30
0.0
 11
7502.4913984833938
 21
1452.975403363911
 31
0.0
  0
LINE
  5
112
  8
TLINE
 10
8262.4655691523985
 20
1662.9754033639149
 30
0.0
 11
8262.4655691523985
 21
1452.975403363911
 31
0.0
  0
LINE
  5
113
  8
TLINE
 10
8223.3812010456932
 20
1662.975403363911
 30
0.0
 11
8223.3812010456859
 21
1452.975403363911
 31
0.0
  0
LINE
  5
114
  8
HONTAIGAIKEI
 10
8223.3812010456859
 20
1332.9754033639069
 30
0.0
 11
8223.3812010456859
 21
1257.3151158275759
 31
0.0
  0
LINE
  5
115
  8
HONTAIGAIKEI
 10
8262.4655691523985
 20
1332.9754033639069
 30
0.0
 11
8262.4655691523985
 21
1257.3151158275789
 31
0.0
  0
LINE
  5
116
  8
HONTAIGAIKEI
 10
7502.4913984833938
 20
1332.975403363904
 30
0.0
 11
7502.4913984834011
 21
1257.3151158275759
 31
0.0
  0
LINE
  5
117
  8
HONTAIGAIKEI
 10
7463.4070303766957
 20
1332.975403363904
 30
0.0
 11
7463.4070303766894
 21
1257.3151158275759
 31
0.0
  0
LINE
  5
118
  8
TLINE
 10
7430.1839897962964
 20
1257.3151158275721
 30
0.0
 11
7430.1839897962964
 21
1222.975403363914
 31
0.0
  0
LINE
  5
119
  8
TLINE
 10
7449.7261926288602
 20
1257.3151158275759
 30
0.0
 11
7449.7261926288602
 21
1222.975403363914
 31
0.0
  0
LINE
  5
11A
  8
TLINE
 10
7534.4090214920543
 20
1257.3151158275759
 30
0.0
 11
7534.4090214920543
 21
1222.975403363914
 31
0.0
  0
LINE
  5
11B
  8
TLINE
 10
7514.8668186594914
 20
1257.3151158275759
 30
0.0
 11
7514.8668186594914
 21
1222.975403363914
 31
0.0
  0
LINE
  5
11C
  8
TLINE
 10
8209.7003632978485
 20
1257.3151158275789
 30
0.0
 11
8209.7003632978485
 21
1222.975403363914
 31
0.0
  0
LINE
  5
11D
  8
TLINE
 10
8190.158160465292
 20
1257.3151158275759
 30
0.0
 11
8190.158160465292
 21
1222.975403363914
 31
0.0
  0
LINE
  5
11E
  8
TLINE
 10
8292.2118655028553
 20
1258.8889610405461
 30
0.0
 11
8292.2118655028553
 21
1222.975403363914
 31
0.0
  0
LINE
  5
11F
  8
TLINE
 10
8272.6696626703015
 20
1257.3151158275789
 30
0.0
 11
8272.6696626703015
 21
1222.975403363914
 31
0.0
  0
LINE
  5
120
  8
HONTAIGAIKEI
 10
11275.07513047439
 20
1520.7999738086221
 30
0.0
 11
11204.08139275999
 21
1520.799973808618
 31
0.0
  0
LINE
  5
121
  8
HONTAIGAIKEI
 10
11196.906356702581
 20
1610.9011332577541
 30
0.0
 11
11196.906356702581
 21
1785.478116497648
 31
0.0
  0
LINE
  5
122
  8
HONTAIGAIKEI
 10
11196.906356702581
 20
1785.478116497648
 30
0.0
 11
11275.07513047439
 21
1785.478116497648
 31
0.0
  0
LINE
  5
123
  8
HONTAIGAIKEI
 10
11275.07513047439
 20
1785.478116497648
 30
0.0
 11
11275.075130474381
 21
1719.2124128166979
 31
0.0
  0
LINE
  5
124
  8
HONTAIGAIKEI
 10
11275.075130474381
 20
1662.975403363916
 30
0.0
 11
11498.610005376049
 21
1662.9754033639099
 31
0.0
  0
LINE
  5
125
  8
HONTAIGAIKEI
 10
11298.75277391391
 20
1662.9754033639149
 30
0.0
 11
11298.75277391392
 21
1673.5839550674859
 31
0.0
  0
LINE
  5
126
  8
HONTAIGAIKEI
 10
12658.880854666389
 20
1748.587259010696
 30
0.0
 11
12658.880854666389
 21
1745.3312321968731
 31
0.0
  0
LINE
  5
127
  8
HONTAIGAIKEI
 10
12658.880854666389
 20
1607.1457916466529
 30
0.0
 11
12540.44402549064
 21
1607.1457916466529
 31
0.0
  0
LINE
  5
128
  8
HONTAIGAIKEI
 10
11523.262289537681
 20
1742.0294370312761
 30
0.0
 11
11523.26228953769
 21
1675.957404076202
 31
0.0
  0
LINE
  5
129
  8
HONTAIGAIKEI
 10
12791.76636914988
 20
1732.427378762826
 30
0.0
 11
12791.76636914988
 21
1662.975403363911
 31
0.0
  0
LINE
  5
12A
  8
HONTAIGAIKEI
 10
12735.3111248688
 20
1715.2160530269571
 30
0.0
 11
12735.3111248688
 21
1662.975403363911
 31
0.0
  0
LINE
  5
12B
  8
HONTAIGAIKEI
 10
12956.78933600148
 20
1748.587259010696
 30
0.0
 11
12956.78933600148
 21
1721.794636023322
 31
0.0
  0
LINE
  5
12C
  8
HONTAIGAIKEI
 10
13004.55912341616
 20
1748.587259010696
 30
0.0
 11
13004.55912341616
 21
1729.4052538789649
 31
0.0
  0
LINE
  5
12D
  8
TLINE
 10
11158.216970968049
 20
1411.89144018753
 30
0.0
 11
11267.026998427311
 21
1411.89144018753
 31
0.0
  0
LINE
  5
12E
  8
HONTAIGAIKEI
 10
13567.22187560869
 20
1411.8914401875261
 30
0.0
 11
13676.03190306794
 21
1411.89144018753
 31
0.0
  0
CIRCLE
  5
12F
  8
TLINE
 10
12417.124437017999
 20
1190.603167017194
 30
0.0
 40
51.367867353759912
  0
LINE
  5
130
  8
HONTAIGAIKEI
 10
12289.74705992457
 20
1536.498724930454
 30
0.0
 11
12289.74705992457
 21
1354.3393261313979
 31
0.0
  0
LINE
  5
131
  8
HONTAIGAIKEI
 10
12544.50181411144
 20
1536.498724930457
 30
0.0
 11
12544.50181411144
 21
1354.339326131405
 31
0.0
  0
ARC
  5
132
  8
HONTAIGAIKEI
 10
12417.124437017999
 20
1190.603167017194
 30
0.0
 40
368.60376175417599
 50
69.783575200387517
 51
74.647278266840488
  0
LINE
  5
133
  8
HONTAIGAIKEI
 10
12540.276288741319
 20
1025.079777530151
 30
0.0
 11
12510.945204873609
 21
932.97540336391103
 31
0.0
  0
LINE
  5
134
  8
HONTAIGAIKEI
 10
12293.972585294679
 20
1025.079777530141
 30
0.0
 11
12323.3036691624
 21
932.97540336391103
 31
0.0
  0
LINE
  5
135
  8
HONTAIGAIKEI
 10
12323.303669162389
 20
932.97540336391103
 30
0.0
 11
12510.945204873609
 21
932.97540336391103
 31
0.0
  0
LINE
  5
136
  8
TLINE
 10
12574.50181411144
 20
1536.498724930457
 30
0.0
 11
12574.50181411144
 21
1427.5627117031941
 31
0.0
  0
LINE
  5
137
  8
TLINE
 10
12259.74705992457
 20
1536.498724930454
 30
0.0
 11
12259.74705992457
 21
1427.5627117031941
 31
0.0
  0
LINE
  5
138
  8
TLINE
 10
12259.74705992457
 20
1536.498724930454
 30
0.0
 11
12289.74705992457
 21
1536.498724930457
 31
0.0
  0
LINE
  5
139
  8
TLINE
 10
12574.50181411144
 20
1536.498724930457
 30
0.0
 11
12544.50181411144
 21
1536.498724930454
 31
0.0
  0
LINE
  5
13A
  8
HONTAIGAIKEI
 10
6682.1244370180102
 20
1832.975403363911
 30
0.0
 11
6882.7869658467862
 21
1693.925571600699
 31
0.0
  0
LINE
  5
13B
  8
HONTAIGAIKEI
 10
6882.7869658467862
 20
1693.925571600699
 30
0.0
 11
6882.7869658467862
 21
1633.654302761955
 31
0.0
  0
LINE
  5
13C
  8
HONTAIGAIKEI
 10
6862.7869658467862
 20
1613.654302761955
 30
0.0
 11
6606.9926119775373
 21
1613.6543027619521
 31
0.0
  0
LINE
  5
13D
  8
HONTAIGAIKEI
 10
6606.9926119775373
 20
1613.6543027619521
 30
0.0
 11
6477.0562810603042
 21
1832.975403363911
 31
0.0
  0
LINE
  5
13E
  8
HONTAIGAIKEI
 10
6882.7869658467862
 20
1662.975403363911
 30
0.0
 11
7117.1244370180029
 21
1662.9754033639069
 31
0.0
  0
LINE
  5
13F
  8
HONTAIGAIKEI
 10
7236.5971058913092
 20
1662.975403363911
 30
0.0
 11
7641.6216014539777
 21
1662.975403363911
 31
0.0
  0
LINE
  5
140
  8
HONTAIGAIKEI
 10
7157.1244370179948
 20
1662.9754033639069
 30
0.0
 11
7195.3413625284129
 21
1662.975403363911
 31
0.0
  0
LINE
  5
141
  8
TLINE
 10
6708.1926287071801
 20
982.97540336391103
 30
0.0
 11
7263.1821831252701
 21
982.97540336391103
 31
0.0
  0
ARC
  5
142
  8
TLINE
 10
6708.1926287071801
 20
1042.975403363914
 30
0.0
 40
60.000000000007283
 50
90.0
 51
270.0
  0
LINE
  5
143
  8
TLINE
 10
7263.1821831252701
 20
1102.9754033639181
 30
0.0
 11
7263.1821831252701
 21
982.97540336391103
 31
0.0
  0
LINE
  5
144
  8
TLINE
 10
7481.4289064294026
 20
1102.9754033639181
 30
0.0
 11
7481.4289064294098
 21
1032.975403363911
 31
0.0
  0
LINE
  5
145
  8
TLINE
 10
7507.4882065843522
 20
1102.9754033639181
 30
0.0
 11
7507.4882065843449
 21
1032.975403363911
 31
0.0
  0
LINE
  5
146
  8
TLINE
 10
7533.5475442977222
 20
1102.9754033639219
 30
0.0
 11
7533.5475442977149
 21
1032.975403363911
 31
0.0
  0
LINE
  5
147
  8
TLINE
 10
7263.1821831252701
 20
982.97540336391103
 30
0.0
 11
7481.4289064294026
 21
1032.975403363911
 31
0.0
  0
LINE
  5
148
  8
TLINE
 10
7481.4289064294098
 20
1032.975403363911
 30
0.0
 11
8204.1384513966586
 21
1032.9754033639069
 31
0.0
  0
LINE
  5
149
  8
TLINE
 10
8204.1384513966586
 20
1032.975403363911
 30
0.0
 11
8382.2104109056418
 21
1102.9754033639181
 31
0.0
  0
LINE
  5
14A
  8
HONTAIGAIKEI
 10
6702.1104332029026
 20
1613.6543027619521
 30
0.0
 11
6745.5426420351678
 21
1452.9754033639181
 31
0.0
  0
LINE
  5
14B
  8
HONTAIGAIKEI
 10
6780.2883704707892
 20
1613.6543027619521
 30
0.0
 11
6845.4366354314652
 21
1452.9754033639149
 31
0.0
  0
LINE
  5
14C
  8
HONTAIGAIKEI
 10
6759.0087388786296
 20
1332.9754033639069
 30
0.0
 11
6759.0087388786296
 21
1222.975403363914
 31
0.0
  0
LINE
  5
14D
  8
HONTAIGAIKEI
 10
6858.3597849983744
 20
1332.9754033639069
 30
0.0
 11
6858.3597849983744
 21
1222.975403363914
 31
0.0
  0
ARC
  5
14E
  8
HONTAIGAIKEI
 10
6862.7869658467862
 20
1633.654302761955
 30
0.0
 40
20.0
 50
270.0
 51
0.0
  0
LINE
  5
14F
  8
HONTAIGAIKEI
 10
6606.9926119775373
 20
1613.6543027619521
 30
0.0
 11
6637.3984962030054
 21
1479.821808966859
 31
0.0
  0
LINE
  5
150
  8
HONTAIGAIKEI
 10
6637.3984962030054
 20
1479.821808966859
 30
0.0
 11
6738.2859412554717
 21
1479.8218089668619
 31
0.0
  0
ARC
  5
151
  8
TLINE
 10
6743.8073740406508
 20
1278.0352765529969
 30
0.0
 40
82.521129178479896
 50
138.2585429314656
 51
221.85298083118079
  0
LINE
  5
152
  8
TLINE
 10
6665.0766773638998
 20
1302.758022389276
 30
0.0
 11
6594.4218271976379
 21
1302.758022389276
 31
0.0
  0
LINE
  5
153
  8
TLINE
 10
6574.4218271976388
 20
1282.758022389276
 30
0.0
 11
6574.4218271976388
 21
1274.1680730589719
 31
0.0
  0
LINE
  5
154
  8
TLINE
 10
6594.4218271976379
 20
1254.1680730589719
 30
0.0
 11
6664.813112488122
 21
1254.1680730589719
 31
0.0
  0
ARC
  5
155
  8
TLINE
 10
6594.4218271976379
 20
1282.758022389276
 30
0.0
 40
20.0
 50
90.0
 51
180.0
  0
ARC
  5
156
  8
TLINE
 10
6594.4218271976379
 20
1274.1680730589719
 30
0.0
 40
20.0
 50
180.0
 51
270.0
  0
ARC
  5
157
  8
HONTAIGAIKEI
 10
6823.1043721535571
 20
1341.0000332881859
 30
0.0
 40
231.858055208368
 50
143.2205727136502
 51
189.4935844241119
  0
LINE
  5
158
  8
HONTAIGAIKEI
 10
6594.4218271976379
 20
1254.168073058976
 30
0.0
 11
6564.7358595101023
 21
1234.178234889009
 31
0.0
  0
LINE
  5
159
  8
TLINE
 10
5058.1033895152032
 20
1902.9754033639031
 30
0.0
 11
5058.1033895152032
 21
1872.546117918173
 31
0.0
  0
LINE
  5
15A
  8
TLINE
 10
5058.1033895152032
 20
1872.546117918173
 30
0.0
 11
5513.9508174977127
 21
1872.546117918173
 31
0.0
  0
LINE
  5
15B
  8
TLINE
 10
5513.9508174977127
 20
1872.546117918173
 30
0.0
 11
5513.9508174977127
 21
1902.9754033639069
 31
0.0
  0
LINE
  5
15C
  8
HONTAIGAIKEI
 10
5476.205504112655
 20
1768.398239806844
 30
0.0
 11
5015.1268170852964
 21
1768.3982398068399
 31
0.0
  0
LINE
  5
15D
  8
HONTAIGAIKEI
 10
4995.1268170852964
 20
1748.3982398068399
 30
0.0
 11
4995.1268170852964
 21
1614.8184429546161
 31
0.0
  0
LINE
  5
15E
  8
HONTAIGAIKEI
 10
5015.1268170852964
 20
1594.8184429546161
 30
0.0
 11
5206.0972015041662
 21
1594.8184429546161
 31
0.0
  0
LINE
  5
15F
  8
HONTAIGAIKEI
 10
5455.2523704305386
 20
1609.066964587975
 30
0.0
 11
5495.3606730390338
 21
1742.6467614402029
 31
0.0
  0
ARC
  5
160
  8
HONTAIGAIKEI
 10
5015.1268170852964
 20
1748.3982398068399
 30
0.0
 40
20.0
 50
90.0
 51
180.0
  0
ARC
  5
161
  8
HONTAIGAIKEI
 10
5015.1268170852964
 20
1614.8184429546161
 30
0.0
 40
20.0
 50
180.0
 51
270.0
  0
ARC
  5
162
  8
HONTAIGAIKEI
 10
5218.3371592174053
 20
3566.321962889775
 30
0.0
 40
1971.541515079391
 50
269.64428726552541
 51
276.90176946364778
  0
ARC
  5
163
  8
HONTAIGAIKEI
 10
5476.205504112655
 20
1748.398239806844
 30
0.0
 40
20.0
 50
343.28723433468213
 51
90.0
  0
LINE
  5
164
  8
HONTAIGAIKEI
 10
6477.0562810603042
 20
1832.975403363911
 30
0.0
 11
6000.1265296897936
 21
1804.6315271480339
 31
0.0
  0
ARC
  5
165
  8
HONTAIGAIKEI
 10
6591.0690750304102
 20
1716.3243007511769
 30
0.0
 40
87.934447775434592
 50
146.7056431189373
 51
221.9367891331049
  0
LINE
  5
166
  8
HONTAIGAIKEI
 10
6505.2350958491397
 20
1607.5674262953689
 30
0.0
 11
6376.4028492254456
 21
1599.411499928201
 31
0.0
  0
ARC
  5
167
  8
HONTAIGAIKEI
 10
6503.3396933692311
 20
1637.507490581185
 30
0.0
 40
30.0
 50
273.622364729948
 51
41.93678913310481
  0
LINE
  5
168
  8
TLINE
 10
6481.9275263197314
 20
1726.2733185097709
 30
0.0
 11
6175.8662963063171
 21
1709.5691956836549
 31
0.0
  0
LINE
  5
169
  8
TLINE
 10
5802.0156042345361
 20
1689.1652788637371
 30
0.0
 11
5654.8001296758412
 21
1681.130594533322
 31
0.0
  0
ARC
  5
16A
  8
TLINE
 10
5594.6439436206092
 20
1791.459875342101
 30
0.0
 40
125.6635067332364
 50
272.0288123543753
 51
358.42186501480489
  0
LINE
  5
16B
  8
TLINE
 10
5632.9155298963051
 20
1576.527834036551
 30
0.0
 11
5533.5778626513893
 21
1586.278559247083
 31
0.0
  0
LINE
  5
16C
  8
TLINE
 10
5982.695492742776
 20
1832.975403363911
 30
0.0
 11
5930.3179950896219
 21
1726.081876939518
 31
0.0
  0
LINE
  5
16D
  8
TLINE
 10
5982.695492742776
 20
1832.975403363911
 30
0.0
 11
6044.6167454120641
 21
1732.2878581463999
 31
0.0
  0
LINE
  5
16E
  8
HONTAIGAIKEI
 10
5967.8676888270529
 20
1802.7143882200139
 30
0.0
 11
5720.2597858855406
 21
1787.999081131544
 31
0.0
  0
LINE
  5
16F
  8
TLINE
 10
5983.6873879801096
 20
1812.273091393927
 30
0.0
 11
5942.3280567449247
 21
1727.8657606818231
 31
0.0
  0
LINE
  5
170
  8
TLINE
 10
5983.6873879801096
 20
1812.273091393927
 30
0.0
 11
6032.5879283299219
 21
1732.757978966707
 31
0.0
  0
LINE
  5
171
  8
TLINE
 10
6381.4496696259766
 20
1612.359434032649
 30
0.0
 11
6481.9275263197314
 21
1726.2733185097709
 31
0.0
  0
ARC
  5
172
  8
TLINE
 10
6632.2235086241817
 20
1824.5948753728039
 30
0.0
 40
328.52914769735082
 50
180.33520312651621
 51
220.2419756793864
  0
LINE
  5
173
  8
TLINE
 10
6303.6999832205438
 20
1822.672859995429
 30
0.0
 11
6481.9275263197378
 21
1726.2733185097709
 31
0.0
  0
CIRCLE
  5
174
  8
TLINE
 10
6197.9015013493299
 20
1767.0965521259091
 30
0.0
 40
9.2094242213280655
  0
LINE
  5
175
  8
HONTAIGAIKEI
 10
5533.5778626513893
 20
1586.278559247083
 30
0.0
 11
5541.2978057610417
 21
1559.888908504988
 31
0.0
  0
LINE
  5
176
  8
HONTAIGAIKEI
 10
5557.0401967093749
 20
1545.8046544121789
 30
0.0
 11
5597.6385872302599
 21
1538.688239550416
 31
0.0
  0
ARC
  5
177
  8
HONTAIGAIKEI
 10
5560.4933100895323
 20
1565.504299281663
 30
0.0
 40
20.0
 50
196.30613854947589
 51
260.05773869579428
  0
LINE
  5
178
  8
HONTAIGAIKEI
 10
4970.7013299562486
 20
1232.9754033639149
 30
0.0
 11
4970.7013299562568
 21
1190.6136509159039
 31
0.0
  0
LINE
  5
179
  8
HONTAIGAIKEI
 10
4960.7013299562568
 20
1180.6136509159039
 30
0.0
 11
4875.0785369965561
 21
1180.6136509159001
 31
0.0
  0
LINE
  5
17A
  8
HONTAIGAIKEI
 10
4868.3920620321333
 20
1183.177855561662
 30
0.0
 11
4856.2314507231886
 21
1194.113017060273
 31
0.0
  0
LINE
  5
17B
  8
HONTAIGAIKEI
 10
4854.831552632455
 20
1207.431887359882
 30
0.0
 11
4873.4152140582628
 21
1232.975403363911
 31
0.0
  0
ARC
  5
17C
  8
HONTAIGAIKEI
 10
4862.9179256876123
 20
1201.5488124145161
 30
0.0
 40
10.0
 50
143.96300535225959
 51
228.03723643596521
  0
ARC
  5
17D
  8
HONTAIGAIKEI
 10
4875.0785369965561
 20
1190.6136509159001
 30
0.0
 40
10.0
 50
228.03723643596521
 51
270.0
  0
ARC
  5
17E
  8
HONTAIGAIKEI
 10
4960.7013299562568
 20
1190.6136509159039
 30
0.0
 40
10.0
 50
270.0
 51
0.0
  0
LINE
  5
17F
  8
HONTAIGAIKEI
 10
6682.1244370180102
 20
2023.994759806377
 30
0.0
 11
6740.7673968769486
 21
2023.994759806377
 31
0.0
  0
LINE
  5
180
  8
HONTAIGAIKEI
 10
6740.7673968769486
 20
2023.994759806377
 30
0.0
 11
6805.9156848227321
 21
1872.1123768263681
 31
0.0
  0
LINE
  5
181
  8
HONTAIGAIKEI
 10
6805.9156848227321
 20
1872.1123768263681
 30
0.0
 11
6805.9156848227321
 21
1745.8919404741389
 31
0.0
  0
LINE
  5
182
  8
HONTAIGAIKEI
 10
6682.1244370180102
 20
1984.9392945734251
 30
0.0
 11
6757.5198117714863
 21
1984.9392945734251
 31
0.0
  0
CIRCLE
  5
183
  8
TLINE
 10
6752.7112333916994
 20
1939.3745817252529
 30
0.0
 40
10.848746025360009
  0
LINE
  5
184
  8
HONTAIGAIKEI
 10
6717.1244370180111
 20
2632.975403363911
 30
0.0
 11
6717.1244370180038
 21
2249.2721268878049
 31
0.0
  0
LINE
  5
185
  8
HONTAIGAIKEI
 10
6717.1244370180111
 20
2632.9754033639151
 30
0.0
 11
6607.2159956441501
 21
3326.4555725766518
 31
0.0
  0
ARC
  5
186
  8
HONTAIGAIKEI
 10
6459.0651210137903
 20
3302.9754033639078
 30
0.0
 40
150.0
 50
9.0058008340046332
 51
90.0
  0
ARC
  5
187
  8
TLINE
 10
5236.261822420598
 20
1199.310540025192
 30
0.0
 40
60.75297774199862
 50
261.77970317448711
 51
33.650603523040751
  0
LINE
  5
188
  8
TLINE
 10
5227.5753890356236
 20
1232.9754033639149
 30
0.0
 11
5227.5753890356173
 21
1139.181760064442
 31
0.0
  0
LINE
  5
189
  8
TLINE
 10
5201.5160513222609
 20
1232.9754033639149
 30
0.0
 11
5201.5160513222609
 21
1139.181760064439
 31
0.0
  0
LINE
  5
18A
  8
TLINE
 10
5227.5753890356173
 20
1139.181760064442
 30
0.0
 11
5201.5160513222609
 21
1139.181760064442
 31
0.0
  0
LINE
  5
18B
  8
TLINE
 10
5306.622729077204
 20
1232.9754033639181
 30
0.0
 11
5306.622729077204
 21
1166.7643224074529
 31
0.0
  0
LINE
  5
18C
  8
TLINE
 10
5306.622729077204
 20
1166.7643224074529
 30
0.0
 11
5326.1672229726209
 21
1166.7643224074529
 31
0.0
  0
LINE
  5
18D
  8
TLINE
 10
5326.1672229726209
 20
1166.7643224074529
 30
0.0
 11
5326.1672229726209
 21
1232.9754033639181
 31
0.0
  0
LINE
  5
18E
  8
HONTAIGAIKEI
 10
4755.5816445492201
 20
2062.9754033639042
 30
0.0
 11
4755.5816445492201
 21
1962.4153788964211
 31
0.0
  0
ARC
  5
18F
  8
HONTAIGAIKEI
 10
4666.1463733357768
 20
1927.6953911301639
 30
0.0
 40
24.719987766260601
 50
90.0
 51
270.0
  0
LINE
  5
190
  8
HONTAIGAIKEI
 10
4666.1463733357696
 20
1952.415378896425
 30
0.0
 11
4745.5816445492201
 21
1952.4153788964211
 31
0.0
  0
LINE
  5
191
  8
HONTAIGAIKEI
 10
4641.3813155731577
 20
2176.332157534991
 30
0.0
 11
4889.8760522796756
 21
2176.332157534991
 31
0.0
  0
LINE
  5
192
  8
HONTAIGAIKEI
 10
4909.8760522796774
 20
2156.332157534991
 30
0.0
 11
4909.8760522796838
 21
1936.6105062984641
 31
0.0
  0
LINE
  5
193
  8
HONTAIGAIKEI
 10
4899.8760522796829
 20
1926.6105062984641
 30
0.0
 11
4641.450203183932
 21
1926.610506298457
 31
0.0
  0
ARC
  5
194
  8
HONTAIGAIKEI
 10
4889.8760522796756
 20
2156.332157534991
 30
0.0
 40
20.0
 50
0.0
 51
90.0
  0
ARC
  5
195
  8
HONTAIGAIKEI
 10
4735.5816445492201
 20
2062.9754033639042
 30
0.0
 40
20.0
 50
0.0
 51
90.0
  0
ARC
  5
196
  8
HONTAIGAIKEI
 10
4745.5816445492201
 20
1962.4153788964211
 30
0.0
 40
10.0
 50
270.0
 51
0.0
  0
ARC
  5
197
  8
HONTAIGAIKEI
 10
4899.8760522796829
 20
1936.6105062984641
 30
0.0
 40
10.0
 50
270.0
 51
0.0
  0
ARC
  5
198
  8
HONTAIGAIKEI
 10
4657.6456988040263
 20
2149.0541545977098
 30
0.0
 40
20.0
 50
171.77383621728521
 51
204.7998657385948
  0
LINE
  5
199
  8
TLINE
 10
5449.5743841795156
 20
3452.975403363911
 30
0.0
 11
5169.3391406012406
 21
3554.067334869098
 31
0.0
  0
LINE
  5
19A
  8
TLINE
 10
5683.3392549477321
 20
3527.8768131041361
 30
0.0
 11
5722.5258632252699
 21
3452.975403363911
 31
0.0
  0
LINE
  5
19B
  8
CENTER
 10
12417.124437017999
 20
1840.0403281537001
 30
0.0
 11
12417.124437017999
 21
468.921134862543
 31
0.0
  0
LINE
  5
19C
  8
HONTAIGAIKEI
 62
     2
 10
6717.1244370180038
 20
2037.9754033639149
 30
0.0
 11
16577.12443701801
 21
2037.975403363911
 31
0.0
  0
LINE
  5
19D
  8
HONTAIGAIKEI
 62
     2
 10
6817.1244370180029
 20
2487.975403363911
 30
0.0
 11
16577.12443701801
 21
2487.975403363911
 31
0.0
  0
LINE
  5
19E
  8
HONTAIGAIKEI
 10
16577.12443701801
 20
2487.9754033639151
 30
0.0
 11
16577.124437017999
 21
1748.5872590106919
 31
0.0
  0
LINE
  5
19F
  8
HASEN
  6
DASHED2
 62
     9
 10
16517.124437017999
 20
2487.975403363911
 30
0.0
 11
16517.124437017999
 21
2037.975403363911
 31
0.0
  0
ARC
  5
1A2
  8
HONTAIGAIKEI
 10
6278.3848356160916
 20
2668.3798749279999
 30
0.0
 40
684.3914400733812
 50
60.318854996198183
 51
91.239598510029111
  0
LINE
  5
1A3
  8
HONTAIGAIKEI
 62
     2
 10
6805.9156848227321
 20
1780.1906305521511
 30
0.0
 11
11196.906356702581
 21
1780.1906305521511
 31
0.0
  0
LINE
  5
1A4
  8
HONTAIGAIKEI
 62
     2
 10
6805.9156848227321
 20
1748.587259010696
 30
0.0
 11
7617.3403843477381
 21
1748.587259010696
 31
0.0
  0
LINE
  5
1A5
  8
TLINE
 10
16335.21685796776
 20
1338.970639429881
 30
0.0
 11
16305.955083854111
 21
1338.9706394298851
 31
0.0
  0
LINE
  5
1A6
  8
TLINE
 10
16335.21685796776
 20
1338.970639429881
 30
0.0
 11
16335.216857967769
 21
1328.970639429881
 31
0.0
  0
LINE
  5
1A7
  8
TLINE
 10
16335.21685796776
 20
1454.816134240682
 30
0.0
 11
16335.21685796776
 21
1444.816134240682
 31
0.0
  0
LINE
  5
1A8
  8
TLINE
 10
16305.955083854111
 20
1444.8161342406779
 30
0.0
 11
16335.21685796776
 21
1444.816134240682
 31
0.0
  0
LINE
  5
1A9
  8
TLINE
 10
16276.693309740451
 20
1338.970639429881
 30
0.0
 11
16305.955083854111
 21
1338.9706394298851
 31
0.0
  0
LINE
  5
1AA
  8
TLINE
 10
16305.955083854111
 20
1444.8161342406779
 30
0.0
 11
16276.693309740451
 21
1444.816134240682
 31
0.0
  0
LINE
  5
1AB
  8
TLINE
 10
16276.693309740451
 20
1338.970639429881
 30
0.0
 11
16276.69330974044
 21
1328.970639429881
 31
0.0
  0
LINE
  5
1AC
  8
TLINE
 10
16276.693309740451
 20
1454.816134240682
 30
0.0
 11
16276.693309740451
 21
1444.816134240682
 31
0.0
  0
LINE
  5
1AD
  8
TLINE
 10
16299.528433011499
 20
1284.541969806603
 30
0.0
 11
16295.52335809933
 21
1309.442896584241
 31
0.0
  0
LINE
  5
1AE
  8
TLINE
 10
16312.38173469671
 20
1284.541969806603
 30
0.0
 11
16316.38680960889
 21
1309.4428965842339
 31
0.0
  0
ARC
  5
1AF
  8
TLINE
 10
16305.955083854111
 20
1285.5756348701141
 30
0.0
 40
6.5092476152203744
 50
189.13721997316119
 51
350.86278002683878
  0
LINE
  5
1B0
  8
TLINE
 10
16319.527659492151
 20
1444.816134240682
 30
0.0
 11
16319.527659492151
 21
1338.9706394298771
 31
0.0
  0
LINE
  5
1B1
  8
TLINE
 10
16292.38250821606
 20
1444.8161342406779
 30
0.0
 11
16292.38250821606
 21
1338.9706394298851
 31
0.0
  0
LINE
  5
1B2
  8
TLINE
 10
16325.49959652872
 20
1485.1926231116779
 30
0.0
 11
16325.49959652872
 21
1474.3438770863249
 31
0.0
  0
LINE
  5
1B3
  8
TLINE
 10
16286.410571179489
 20
1485.1926231116779
 30
0.0
 11
16325.49959652872
 21
1485.1926231116779
 31
0.0
  0
LINE
  5
1B4
  8
TLINE
 10
16286.410571179489
 20
1474.3438770863249
 30
0.0
 11
16286.410571179489
 21
1485.1926231116779
 31
0.0
  0
LINE
  5
1B5
  8
TLINE
 10
16239.62759336519
 20
1328.970639429881
 30
0.0
 11
16334.185879680081
 21
1328.970639429881
 31
0.0
  0
LINE
  5
1B6
  8
TLINE
 10
16334.185879680081
 20
1328.970639429881
 30
0.0
 11
16334.185879680081
 21
1309.4428965842339
 31
0.0
  0
LINE
  5
1B7
  8
TLINE
 10
16334.185879680081
 20
1309.4428965842339
 30
0.0
 11
16239.62759336519
 21
1309.442896584238
 31
0.0
  0
LINE
  5
1B8
  8
TLINE
 10
16334.185879680081
 20
1454.8161342406779
 30
0.0
 11
16239.62759336519
 21
1454.816134240682
 31
0.0
  0
LINE
  5
1B9
  8
TLINE
 10
16334.185879680081
 20
1474.3438770863249
 30
0.0
 11
16334.185879680081
 21
1454.8161342406779
 31
0.0
  0
LINE
  5
1BA
  8
TLINE
 10
16239.62759336519
 20
1474.3438770863249
 30
0.0
 11
16334.185879680081
 21
1474.3438770863249
 31
0.0
  0
LINE
  5
1BB
  8
HONTAIGAIKEI
 62
     2
 10
13363.516978879001
 20
1780.1906305521479
 30
0.0
 11
16577.12443701801
 21
1780.1906305521479
 31
0.0
  0
LINE
  5
1BC
  8
HONTAIGAIKEI
 62
     2
 10
15898.26661444286
 20
1748.5872590106919
 30
0.0
 11
16577.12443701801
 21
1748.5872590106919
 31
0.0
  0
LINE
  5
1BD
  8
HONTAIGAIKEI
 62
     2
 10
7734.3798242552111
 20
1748.587259010696
 30
0.0
 11
11117.12443701799
 21
1748.587259010696
 31
0.0
  0
LINE
  5
1BE
  8
TLINE
 10
11111.96058203284
 20
1394.860937078967
 30
0.0
 11
11234.524563133309
 21
1706.574458138093
 31
0.0
  0
LINE
  5
1BF
  8
TLINE
 10
11263.95543249561
 20
1662.9754033639331
 30
0.0
 11
11151.04495099928
 21
1394.860937078967
 31
0.0
  0
LINE
  5
1C0
  8
TLINE
 10
11151.04495099928
 20
1394.860937078967
 30
0.0
 11
11111.96058203284
 21
1394.860937078967
 31
0.0
  0
LINE
  5
1C1
  8
TLINE
 10
11767.12443701799
 20
1816.3748925931029
 30
0.0
 11
11263.95543249561
 21
1662.9754033639331
 31
0.0
  0
LINE
  5
1C2
  8
TLINE
 10
11767.12443701799
 20
1872.5640733109101
 30
0.0
 11
11234.524563133309
 21
1706.574458138093
 31
0.0
  0
LINE
  5
1C3
  8
HONTAIGAIKEI
 62
     2
 10
11648.435651272919
 20
1780.1906305521511
 30
0.0
 11
11885.81322276309
 21
1780.1906305521511
 31
0.0
  0
LINE
  5
1C4
  8
HONTAIGAIKEI
 62
     2
 10
11544.77274419304
 20
1748.587259010696
 30
0.0
 11
11989.47612984296
 21
1748.5872590106919
 31
0.0
  0
LINE
  5
1C5
  8
HONTAIGAIKEI
 10
11298.75277391391
 20
1726.5917666533021
 30
0.0
 11
11298.75277391391
 21
1780.1906305521511
 31
0.0
  0
LINE
  5
1C6
  8
HONTAIGAIKEI
 10
11275.075130474381
 20
1666.365429329355
 30
0.0
 11
11275.075130474381
 21
1520.799973808618
 31
0.0
  0
LINE
  5
1C7
  8
HONTAIGAIKEI
 62
     2
 10
11167.12443701799
 20
1748.587259010696
 30
0.0
 11
11196.906356702581
 21
1748.587259010696
 31
0.0
  0
LINE
  5
1C8
  8
HONTAIGAIKEI
 62
     2
 10
11275.075130474381
 20
1780.1906305521479
 30
0.0
 11
11470.73189515693
 21
1780.1906305521511
 31
0.0
  0
LINE
  5
1C9
  8
HONTAIGAIKEI
 62
     2
 10
11275.075130474381
 20
1748.587259010696
 30
0.0
 11
11369.32825204477
 21
1748.587259010696
 31
0.0
  0
LINE
  5
1CA
  8
TLINE
 10
9708.7765963956444
 20
1748.587259010699
 30
0.0
 11
9708.7765963956608
 21
1452.9754033639181
 31
0.0
  0
LINE
  5
1CB
  8
TLINE
 10
9658.7765963956444
 20
1748.587259010696
 30
0.0
 11
9658.7765963956444
 21
1452.9754033639181
 31
0.0
  0
LINE
  5
1CC
  8
HONTAIGAIKEI
 10
13685.589013141731
 20
1488.197179354265
 30
0.0
 11
15611.64863232242
 21
1488.1971793542691
 31
0.0
  0
LINE
  5
1CD
  8
HONTAIGAIKEI
 10
15611.64863232242
 20
1488.1971793542691
 30
0.0
 11
15923.712925157601
 21
1562.437836228313
 31
0.0
  0
LINE
  5
1CE
  8
HONTAIGAIKEI
 10
16103.693074246959
 20
1571.0330366199159
 30
0.0
 11
16517.124437017988
 21
1571.0330366199159
 31
0.0
  0
LINE
  5
1CF
  8
HONTAIGAIKEI
 10
16517.124437017999
 20
1748.5872590106919
 30
0.0
 11
16517.124437017988
 21
1571.0330366199159
 31
0.0
  0
LINE
  5
1D0
  8
HONTAIGAIKEI
 10
15855.74790428161
 20
1672.2783387321319
 30
0.0
 11
16086.25664638642
 21
1299.745589709491
 31
0.0
  0
LINE
  5
1D1
  8
HONTAIGAIKEI
 10
16086.25664638642
 20
1299.745589709491
 30
0.0
 11
16239.62759336519
 21
1299.745589709491
 31
0.0
  0
LINE
  5
1D2
  8
HONTAIGAIKEI
 10
16239.62759336519
 20
1299.745589709491
 30
0.0
 11
16239.62759336519
 21
1486.126279607528
 31
0.0
  0
LINE
  5
1D3
  8
HONTAIGAIKEI
 10
16239.62759336519
 20
1486.126279607528
 30
0.0
 11
16189.88568923286
 21
1486.126279607528
 31
0.0
  0
LINE
  5
1D4
  8
HONTAIGAIKEI
 10
16189.88568923286
 20
1486.126279607528
 30
0.0
 11
16189.88568923286
 21
1299.745589709491
 31
0.0
  0
LINE
  5
1D5
  8
HONTAIGAIKEI
 10
16189.88568923286
 20
1486.126279607528
 30
0.0
 11
16131.853434743371
 21
1486.126279607528
 31
0.0
  0
LINE
  5
1D6
  8
HONTAIGAIKEI
 10
16131.853434743371
 20
1486.126279607528
 30
0.0
 11
16044.80505300913
 21
1748.5872590106919
 31
0.0
  0
ARC
  5
1D7
  8
HONTAIGAIKEI
 10
15898.26661444286
 20
1698.5872590106919
 30
0.0
 40
50.0
 50
90.0
 51
211.74760686234089
  0
LINE
  5
1D8
  8
HONTAIGAIKEI
 10
15898.26661444286
 20
1748.5872590106919
 30
0.0
 11
13464.920621991179
 21
1748.5872590106919
 31
0.0
  0
LINE
  5
1D9
  8
TLINE
 10
11123.69239007368
 20
2487.975403363911
 30
0.0
 11
11123.69239007368
 21
2037.975403363911
 31
0.0
  0
LINE
  5
1DA
  8
TLINE
 10
11049.07951407413
 20
2487.975403363911
 30
0.0
 11
11049.07951407413
 21
2037.975403363911
 31
0.0
  0
LINE
  5
1DB
  8
TLINE
 10
11165.14398345098
 20
2487.975403363911
 30
0.0
 11
11165.14398345098
 21
2394.1696293873938
 31
0.0
  0
LINE
  5
1DC
  8
TLINE
 10
11049.07951407413
 20
2487.975403363911
 30
0.0
 11
11049.07951407413
 21
2037.975403363911
 31
0.0
  0
LINE
  5
1DD
  8
TLINE
 10
11007.62788109471
 20
2487.975403363911
 30
0.0
 11
11007.62788109471
 21
2394.1696293873938
 31
0.0
  0
LINE
  5
1DE
  8
TLINE
 10
11007.62788109471
 20
2394.1696293873938
 30
0.0
 11
11165.14398345098
 21
2394.169629387397
 31
0.0
  0
LINE
  5
1DF
  8
TLINE
 10
16243.3660744275
 20
2037.975403363911
 30
0.0
 11
16243.3660744275
 21
1952.489927822837
 31
0.0
  0
LINE
  5
1E0
  8
TLINE
 10
16243.3660744275
 20
1952.489927822837
 30
0.0
 11
16301.398328916999
 21
1952.489927822837
 31
0.0
  0
LINE
  5
1E1
  8
TLINE
 10
16301.398328916999
 20
1952.489927822837
 30
0.0
 11
16301.39832891699
 21
2037.975403363911
 31
0.0
  0
LINE
  5
1E2
  8
TLINE
 10
15851.398328916999
 20
1952.489927822837
 30
0.0
 11
15851.39832891699
 21
2037.975403363911
 31
0.0
  0
LINE
  5
1E3
  8
TLINE
 10
15793.3660744275
 20
1952.489927822837
 30
0.0
 11
15851.398328916999
 21
1952.489927822837
 31
0.0
  0
LINE
  5
1E4
  8
TLINE
 10
15793.3660744275
 20
2037.975403363911
 30
0.0
 11
15793.3660744275
 21
1952.489927822837
 31
0.0
  0
LINE
  5
1E5
  8
TLINE
 10
15401.398328916999
 20
1952.489927822837
 30
0.0
 11
15401.39832891699
 21
2037.975403363911
 31
0.0
  0
LINE
  5
1E6
  8
TLINE
 10
15343.3660744275
 20
1952.489927822837
 30
0.0
 11
15401.398328916999
 21
1952.489927822837
 31
0.0
  0
LINE
  5
1E7
  8
TLINE
 10
15343.3660744275
 20
2037.975403363911
 30
0.0
 11
15343.3660744275
 21
1952.489927822837
 31
0.0
  0
LINE
  5
1E8
  8
TLINE
 10
14951.398328916999
 20
1952.489927822837
 30
0.0
 11
14951.39832891699
 21
2037.975403363911
 31
0.0
  0
LINE
  5
1E9
  8
TLINE
 10
14893.3660744275
 20
1952.489927822837
 30
0.0
 11
14951.398328916999
 21
1952.489927822837
 31
0.0
  0
LINE
  5
1EA
  8
TLINE
 10
14893.3660744275
 20
2037.975403363911
 30
0.0
 11
14893.3660744275
 21
1952.489927822837
 31
0.0
  0
LINE
  5
1EB
  8
TLINE
 10
14501.398328916999
 20
1952.489927822837
 30
0.0
 11
14501.39832891699
 21
2037.975403363911
 31
0.0
  0
LINE
  5
1EC
  8
TLINE
 10
14443.3660744275
 20
1952.489927822837
 30
0.0
 11
14501.398328916999
 21
1952.489927822837
 31
0.0
  0
LINE
  5
1ED
  8
TLINE
 10
14443.3660744275
 20
2037.975403363911
 30
0.0
 11
14443.3660744275
 21
1952.489927822837
 31
0.0
  0
LINE
  5
1EE
  8
TLINE
 10
14051.398328916999
 20
1952.489927822837
 30
0.0
 11
14051.39832891699
 21
2037.975403363911
 31
0.0
  0
LINE
  5
1EF
  8
TLINE
 10
13993.3660744275
 20
1952.489927822837
 30
0.0
 11
14051.398328916999
 21
1952.489927822837
 31
0.0
  0
LINE
  5
1F0
  8
TLINE
 10
13993.3660744275
 20
2037.975403363911
 30
0.0
 11
13993.3660744275
 21
1952.489927822837
 31
0.0
  0
LINE
  5
1F1
  8
TLINE
 10
13601.398328916999
 20
1952.489927822837
 30
0.0
 11
13601.39832891699
 21
2037.975403363911
 31
0.0
  0
LINE
  5
1F2
  8
TLINE
 10
13543.3660744275
 20
1952.489927822837
 30
0.0
 11
13601.398328916999
 21
1952.489927822837
 31
0.0
  0
LINE
  5
1F3
  8
TLINE
 10
13543.3660744275
 20
2037.975403363911
 30
0.0
 11
13543.3660744275
 21
1952.489927822837
 31
0.0
  0
LINE
  5
1F4
  8
TLINE
 10
13151.398328916999
 20
1952.489927822837
 30
0.0
 11
13151.39832891699
 21
2037.975403363911
 31
0.0
  0
LINE
  5
1F5
  8
TLINE
 10
13093.3660744275
 20
1952.489927822837
 30
0.0
 11
13151.398328916999
 21
1952.489927822837
 31
0.0
  0
LINE
  5
1F6
  8
TLINE
 10
13093.3660744275
 20
2037.975403363911
 30
0.0
 11
13093.3660744275
 21
1952.489927822837
 31
0.0
  0
LINE
  5
1F7
  8
TLINE
 10
12701.398328916999
 20
1952.489927822837
 30
0.0
 11
12701.39832891699
 21
2037.975403363911
 31
0.0
  0
LINE
  5
1F8
  8
TLINE
 10
12643.3660744275
 20
1952.489927822837
 30
0.0
 11
12701.398328916999
 21
1952.489927822837
 31
0.0
  0
LINE
  5
1F9
  8
TLINE
 10
12643.3660744275
 20
2037.975403363911
 30
0.0
 11
12643.3660744275
 21
1952.489927822837
 31
0.0
  0
LINE
  5
1FA
  8
TLINE
 10
12251.398328916999
 20
1952.489927822837
 30
0.0
 11
12251.39832891699
 21
2037.975403363911
 31
0.0
  0
LINE
  5
1FB
  8
TLINE
 10
12193.3660744275
 20
1952.489927822837
 30
0.0
 11
12251.398328916999
 21
1952.489927822837
 31
0.0
  0
LINE
  5
1FC
  8
TLINE
 10
12193.3660744275
 20
2037.975403363911
 30
0.0
 11
12193.3660744275
 21
1952.489927822837
 31
0.0
  0
LINE
  5
1FD
  8
TLINE
 10
11801.398328916999
 20
1952.489927822837
 30
0.0
 11
11801.39832891699
 21
2037.975403363911
 31
0.0
  0
LINE
  5
1FE
  8
TLINE
 10
11743.3660744275
 20
1952.489927822837
 30
0.0
 11
11801.398328916999
 21
1952.489927822837
 31
0.0
  0
LINE
  5
1FF
  8
TLINE
 10
11743.3660744275
 20
2037.975403363911
 30
0.0
 11
11743.3660744275
 21
1952.489927822837
 31
0.0
  0
LINE
  5
200
  8
TLINE
 10
11351.398328916999
 20
1952.489927822837
 30
0.0
 11
11351.39832891699
 21
2037.975403363911
 31
0.0
  0
LINE
  5
201
  8
TLINE
 10
11293.3660744275
 20
1952.489927822837
 30
0.0
 11
11351.398328916999
 21
1952.489927822837
 31
0.0
  0
LINE
  5
202
  8
TLINE
 10
11293.3660744275
 20
2037.975403363911
 30
0.0
 11
11293.3660744275
 21
1952.489927822837
 31
0.0
  0
LINE
  5
203
  8
TLINE
 10
10901.398328916999
 20
1952.489927822837
 30
0.0
 11
10901.39832891699
 21
2037.975403363911
 31
0.0
  0
LINE
  5
204
  8
TLINE
 10
10843.3660744275
 20
1952.489927822837
 30
0.0
 11
10901.398328916999
 21
1952.489927822837
 31
0.0
  0
LINE
  5
205
  8
TLINE
 10
10843.3660744275
 20
2037.975403363911
 30
0.0
 11
10843.3660744275
 21
1952.489927822837
 31
0.0
  0
LINE
  5
206
  8
TLINE
 10
10451.398328916999
 20
1952.489927822837
 30
0.0
 11
10451.39832891699
 21
2037.975403363911
 31
0.0
  0
LINE
  5
207
  8
TLINE
 10
10393.3660744275
 20
1952.489927822837
 30
0.0
 11
10451.398328916999
 21
1952.489927822837
 31
0.0
  0
LINE
  5
208
  8
TLINE
 10
10393.3660744275
 20
2037.975403363911
 30
0.0
 11
10393.3660744275
 21
1952.489927822837
 31
0.0
  0
LINE
  5
209
  8
TLINE
 10
10001.398328916999
 20
1952.489927822837
 30
0.0
 11
10001.39832891699
 21
2037.975403363911
 31
0.0
  0
LINE
  5
20A
  8
TLINE
 10
9943.3660744275003
 20
1952.489927822837
 30
0.0
 11
10001.398328916999
 21
1952.489927822837
 31
0.0
  0
LINE
  5
20B
  8
TLINE
 10
9943.3660744275003
 20
2037.975403363911
 30
0.0
 11
9943.3660744275003
 21
1952.489927822837
 31
0.0
  0
LINE
  5
20C
  8
TLINE
 10
9551.3983289170028
 20
1952.489927822837
 30
0.0
 11
9551.3983289169955
 21
2037.975403363911
 31
0.0
  0
LINE
  5
20D
  8
TLINE
 10
9493.3660744275003
 20
1952.489927822837
 30
0.0
 11
9551.3983289170028
 21
1952.489927822837
 31
0.0
  0
LINE
  5
20E
  8
TLINE
 10
9493.3660744275003
 20
2037.975403363911
 30
0.0
 11
9493.3660744275003
 21
1952.489927822837
 31
0.0
  0
LINE
  5
20F
  8
TLINE
 10
9101.3983289170028
 20
1952.489927822837
 30
0.0
 11
9101.3983289169955
 21
2037.975403363911
 31
0.0
  0
LINE
  5
210
  8
TLINE
 10
9043.3660744275003
 20
1952.489927822837
 30
0.0
 11
9101.3983289170028
 21
1952.489927822837
 31
0.0
  0
LINE
  5
211
  8
TLINE
 10
9043.3660744275003
 20
2037.975403363911
 30
0.0
 11
9043.3660744275003
 21
1952.489927822837
 31
0.0
  0
LINE
  5
212
  8
TLINE
 10
8651.3983289170028
 20
1952.489927822837
 30
0.0
 11
8651.3983289169955
 21
2037.975403363911
 31
0.0
  0
LINE
  5
213
  8
TLINE
 10
8593.3660744275003
 20
1952.489927822837
 30
0.0
 11
8651.3983289170028
 21
1952.489927822837
 31
0.0
  0
LINE
  5
214
  8
TLINE
 10
8593.3660744275003
 20
2037.975403363911
 30
0.0
 11
8593.3660744275003
 21
1952.489927822837
 31
0.0
  0
LINE
  5
215
  8
TLINE
 10
8201.3983289170028
 20
1952.489927822837
 30
0.0
 11
8201.3983289169955
 21
2037.975403363911
 31
0.0
  0
LINE
  5
216
  8
TLINE
 10
8143.3660744275003
 20
1952.489927822837
 30
0.0
 11
8201.3983289170028
 21
1952.489927822837
 31
0.0
  0
LINE
  5
217
  8
TLINE
 10
8143.3660744275003
 20
2037.975403363911
 30
0.0
 11
8143.3660744275003
 21
1952.489927822837
 31
0.0
  0
LINE
  5
218
  8
TLINE
 10
7751.3983289170019
 20
1952.489927822837
 30
0.0
 11
7751.3983289169946
 21
2037.975403363911
 31
0.0
  0
LINE
  5
219
  8
TLINE
 10
7693.3660744275003
 20
1952.489927822837
 30
0.0
 11
7751.3983289170019
 21
1952.489927822837
 31
0.0
  0
LINE
  5
21A
  8
TLINE
 10
7693.3660744275003
 20
2037.975403363911
 30
0.0
 11
7693.3660744275003
 21
1952.489927822837
 31
0.0
  0
LINE
  5
21B
  8
TLINE
 10
7243.3660744275003
 20
1952.489927822837
 30
0.0
 11
7301.3983289170019
 21
1952.489927822837
 31
0.0
  0
LINE
  5
21C
  8
TLINE
 10
7243.3660744275003
 20
2037.975403363911
 30
0.0
 11
7243.3660744275003
 21
1952.489927822837
 31
0.0
  0
LINE
  5
21D
  8
TLINE
 10
7301.3983289170019
 20
1952.489927822837
 30
0.0
 11
7301.3983289169946
 21
2037.975403363911
 31
0.0
  0
LINE
  5
21E
  8
TLINE
 10
11767.12443701801
 20
1872.5640733109101
 30
0.0
 11
12299.724310902689
 21
1706.574458138093
 31
0.0
  0
LINE
  5
21F
  8
TLINE
 10
11767.12443701801
 20
1816.3748925931029
 30
0.0
 11
12270.2934415404
 21
1662.9754033639331
 31
0.0
  0
LINE
  5
220
  8
TLINE
 10
12270.2934415404
 20
1662.9754033639331
 30
0.0
 11
12377.67321374446
 21
1407.99402402023
 31
0.0
  0
LINE
  5
221
  8
TLINE
 10
12417.124437017999
 20
1407.99402402023
 30
0.0
 11
12299.724310902689
 21
1706.574458138093
 31
0.0
  0
LINE
  5
222
  8
TLINE
 10
13067.124437017999
 20
1872.5640733108951
 30
0.0
 11
12534.52456313332
 21
1706.5744581380709
 31
0.0
  0
LINE
  5
223
  8
TLINE
 10
13067.124437017999
 20
1816.3748925930879
 30
0.0
 11
12563.955432495621
 21
1662.975403363911
 31
0.0
  0
LINE
  5
224
  8
TLINE
 10
12563.955432495621
 20
1662.975403363911
 30
0.0
 11
12456.575660291561
 21
1407.99402402023
 31
0.0
  0
LINE
  5
225
  8
TLINE
 10
12417.124437017999
 20
1407.99402402023
 30
0.0
 11
12534.52456313332
 21
1706.5744581380709
 31
0.0
  0
LINE
  5
226
  8
TLINE
 10
12377.67321374446
 20
1407.99402402023
 30
0.0
 11
12456.575660291561
 21
1407.99402402023
 31
0.0
  0
LINE
  5
227
  8
HONTAIGAIKEI
 62
     2
 10
12164.920621991219
 20
1748.587259010696
 30
0.0
 11
12669.328252044839
 21
1748.5872590106919
 31
0.0
  0
LINE
  5
228
  8
HONTAIGAIKEI
 62
     2
 10
12063.516978879061
 20
1780.1906305521479
 30
0.0
 11
12770.731895156991
 21
1780.1906305521441
 31
0.0
  0
LINE
  5
229
  8
HONTAIGAIKEI
 10
12293.804848545389
 20
1607.1457916466529
 30
0.0
 11
12117.2379638976
 21
1607.1457916466491
 31
0.0
  0
LINE
  5
22A
  8
HONTAIGAIKEI
 10
12495.429777769839
 20
1607.1457916466529
 30
0.0
 11
12338.819096266159
 21
1607.1457916466461
 31
0.0
  0
ARC
  5
22B
  8
HONTAIGAIKEI
 10
12417.124437017999
 20
1190.603167017194
 30
0.0
 40
368.60376175417599
 50
80.998613880499505
 51
99.001386119500509
  0
LINE
  5
22C
  8
HONTAIGAIKEI
 10
12658.880854666389
 20
1691.915006449522
 30
0.0
 11
12658.880854666389
 21
1607.1457916466529
 31
0.0
  0
LINE
  5
22D
  8
HONTAIGAIKEI
 62
     2
 10
12844.772744193089
 20
1748.5872590106919
 30
0.0
 11
13289.476129842889
 21
1748.5872590106919
 31
0.0
  0
LINE
  5
22E
  8
HONTAIGAIKEI
 62
     2
 10
12948.435651272979
 20
1780.1906305521441
 30
0.0
 11
13185.81322276301
 21
1780.1906305521479
 31
0.0
  0
ARC
  5
22F
  8
HONTAIGAIKEI
 10
12417.124437017999
 20
1190.603167017194
 30
0.0
 40
368.60376175417599
 50
105.3527217331595
 51
110.2164247996124
  0
LINE
  5
230
  8
HONTAIGAIKEI
 10
6805.9156848227321
 20
1850.9166302929229
 30
0.0
 11
11697.665721728459
 21
1850.9166302929229
 31
0.0
  0
LINE
  5
231
  8
HONTAIGAIKEI
 10
13136.58315230747
 20
1850.9166302929191
 30
0.0
 11
16577.124437017999
 21
1850.9166302929229
 31
0.0
  0
LINE
  5
232
  8
HONTAIGAIKEI
 10
11836.58315230755
 20
1850.9166302929229
 30
0.0
 11
12997.66572172851
 21
1850.9166302929191
 31
0.0
  0
LINE
  5
233
  8
HONTAIGAIKEI
 10
13722.28829200315
 20
1394.860937078945
 30
0.0
 11
13722.28829200315
 21
937.10254081158917
 31
0.0
  0
LINE
  5
234
  8
TLINE
 10
9658.7765963956444
 20
1332.9754033639069
 30
0.0
 11
9658.7765963956444
 21
1222.975403363914
 31
0.0
  0
LINE
  5
235
  8
HONTAIGAIKEI
 10
9769.4518178277976
 20
1412.975403363911
 30
0.0
 11
10963.67743685664
 21
1359.8105552579291
 31
0.0
  0
LINE
  5
236
  8
HONTAIGAIKEI
 10
11034.44471546247
 20
1237.482795240714
 30
0.0
 11
11040.62927276184
 21
1376.4046022689979
 31
0.0
  0
LINE
  5
237
  8
HONTAIGAIKEI
 10
10958.382363795121
 20
1240.8689588839511
 30
0.0
 11
10964.566921094491
 21
1379.7907659122391
 31
0.0
  0
LINE
  5
238
  8
HONTAIGAIKEI
 10
10964.56692109448
 20
1379.790765912235
 30
0.0
 11
11040.62927276184
 21
1376.4046022689979
 31
0.0
  0
LINE
  5
239
  8
HONTAIGAIKEI
 10
10958.38236379511
 20
1240.8689588839479
 30
0.0
 11
11034.444715462459
 21
1237.482795240714
 31
0.0
  0
LINE
  5
23A
  8
HONTAIGAIKEI
 10
11039.73978852399
 20
1356.4243916146879
 30
0.0
 11
11242.279669252001
 21
1347.4076682897769
 31
0.0
  0
LINE
  5
23B
  8
HONTAIGAIKEI
 10
11035.33419970031
 20
1257.463005895024
 30
0.0
 11
11221.125011505281
 21
1249.191921996211
 31
0.0
  0
LINE
  5
23C
  8
HONTAIGAIKEI
 10
12306.33948476488
 20
1300.037575431259
 30
0.0
 11
12751.9905825186
 21
1280.197963432641
 31
0.0
  0
LINE
  5
23D
  8
HONTAIGAIKEI
 10
12316.8479645138
 20
1200.4122413104919
 30
0.0
 11
12743.75136453555
 21
1181.4072442174511
 31
0.0
  0
LINE
  5
23E
  8
HONTAIGAIKEI
 10
9708.7765963956517
 20
1316.519043849461
 30
0.0
 11
10959.27184803296
 21
1260.849169538265
 31
0.0
  0
ARC
  5
23F
  8
TLINE
 10
9708.7765963956444
 20
1432.9754033639149
 30
0.0
 40
20.0
 50
270.0
 51
90.0
  0
ARC
  5
240
  8
TLINE
 10
9708.7765963956444
 20
1392.975403363911
 30
0.0
 40
20.0
 50
270.0
 51
90.0
  0
ARC
  5
241
  8
TLINE
 10
9708.7765963956444
 20
1352.975403363911
 30
0.0
 40
20.0
 50
270.0
 51
90.0
  0
ARC
  5
242
  8
TLINE
 10
9708.7765963956444
 20
1202.9754033639149
 30
0.0
 40
20.0
 50
270.0
 51
90.0
  0
ARC
  5
243
  8
TLINE
 10
9708.7765963956444
 20
1162.975403363911
 30
0.0
 40
20.0
 50
270.0
 51
90.0
  0
ARC
  5
244
  8
TLINE
 10
9708.7765963956444
 20
1122.975403363911
 30
0.0
 40
20.0
 50
270.0
 51
90.0
  0
LINE
  5
245
  8
TLINE
 10
9708.7765963956608
 20
1332.9754033639069
 30
0.0
 11
9708.7765963956517
 21
1222.9754033639181
 31
0.0
  0
LINE
  5
246
  8
HONTAIGAIKEI
 10
10501.5355346303
 20
1623.9073456346091
 30
0.0
 11
10501.5355346303
 21
1442.7910172085251
 31
0.0
  0
LINE
  5
247
  8
HONTAIGAIKEI
 10
10501.5355346303
 20
1442.7910172085251
 30
0.0
 11
10843.464539271101
 21
1442.7910172085251
 31
0.0
  0
LINE
  5
248
  8
HONTAIGAIKEI
 10
10843.464539271101
 20
1442.7910172085251
 30
0.0
 11
10843.464539271101
 21
1623.9073456346091
 31
0.0
  0
LINE
  5
249
  8
HONTAIGAIKEI
 10
10843.464539271101
 20
1623.9073456346091
 30
0.0
 11
10501.5355346303
 21
1623.9073456346091
 31
0.0
  0
LINE
  5
24A
  8
HONTAIGAIKEI
 10
8981.8060158709959
 20
1452.9754033639149
 30
0.0
 11
8981.8060158709959
 21
1599.415488214345
 31
0.0
  0
LINE
  5
24B
  8
HONTAIGAIKEI
 10
8674.0699116942815
 20
1599.415488214345
 30
0.0
 11
8674.0699116942742
 21
1452.9754033639149
 31
0.0
  0
LINE
  5
24C
  8
HONTAIGAIKEI
 10
8981.8060158709959
 20
1599.415488214345
 30
0.0
 11
8674.0699116942815
 21
1599.415488214345
 31
0.0
  0
ENDSEC
  0
EOF
