  0
SECTION
  2
HEADER
  9
$ACADVER
  1
AC1009
  9
$INSBASE
 10
8897.0177579793672
 20
64774.732066663659
 30
0.0
  9
$EXTMIN
 10
3204.5873124439681
 20
57861.17399101414
 30
0.0
  9
$EXTMAX
 10
26685.503491664771
 20
68204.256449389824
 30
0.0
  9
$LIMMIN
 10
0.0
 20
0.0
  9
$LIMMAX
 10
420.0
 20
297.0
  9
$ORTHOMODE
 70
     1
  9
$REGENMODE
 70
     1
  9
$FILLMODE
 70
     1
  9
$QTEXTMODE
 70
     0
  9
$MIRRTEXT
 70
     1
  9
$DRAGMODE
 70
     2
  9
$LTSCALE
 40
400.0
  9
$OSMODE
 70
    44
  9
$ATTMODE
 70
     1
  9
$TEXTSIZE
 40
2.5
  9
$TRACEWID
 40
1.0
  9
$TEXTSTYLE
  7
STANDARD
  9
$CLAYER
  8
SAIBU
  9
$CELTYPE
  6
BYLAYER
  9
$CECOLOR
 62
   256
  9
$DIMSCALE
 40
100.0
  9
$DIMASZ
 40
0.18
  9
$DIMEXO
 40
0.0625
  9
$DIMDLI
 40
0.38
  9
$DIMRND
 40
0.0
  9
$DIMDLE
 40
0.0
  9
$DIMEXE
 40
0.14
  9
$DIMTP
 40
0.0
  9
$DIMTM
 40
0.0
  9
$DIMTXT
 40
0.18
  9
$DIMCEN
 40
0.09
  9
$DIMTSZ
 40
0.0
  9
$DIMTOL
 70
     0
  9
$DIMLIM
 70
     0
  9
$DIMTIH
 70
     0
  9
$DIMTOH
 70
     0
  9
$DIMSE1
 70
     0
  9
$DIMSE2
 70
     0
  9
$DIMTAD
 70
     1
  9
$DIMZIN
 70
     0
  9
$DIMBLK
  1

  9
$DIMASO
 70
     1
  9
$DIMSHO
 70
     1
  9
$DIMPOST
  1

  9
$DIMAPOST
  1

  9
$DIMALT
 70
     0
  9
$DIMALTD
 70
     2
  9
$DIMALTF
 40
25.399999999999999
  9
$DIMLFAC
 40
1.0
  9
$DIMTOFL
 70
     1
  9
$DIMTVP
 40
0.0
  9
$DIMTIX
 70
     0
  9
$DIMSOXD
 70
     0
  9
$DIMSAH
 70
     0
  9
$DIMBLK1
  1

  9
$DIMBLK2
  1

  9
$DIMSTYLE
  2
STANDARD
  9
$DIMCLRD
 70
     0
  9
$DIMCLRE
 70
     0
  9
$DIMCLRT
 70
     0
  9
$DIMTFAC
 40
1.0
  9
$DIMGAP
 40
0.05
  9
$LUNITS
 70
     2
  9
$LUPREC
 70
     4
  9
$SKETCHINC
 40
1.0
  9
$FILLETRAD
 40
10.0
  9
$AUNITS
 70
     0
  9
$AUPREC
 70
     0
  9
$MENU
  1
.
  9
$ELEVATION
 40
0.0
  9
$PELEVATION
 40
0.0
  9
$THICKNESS
 40
0.0
  9
$LIMCHECK
 70
     0
  9
$BLIPMODE
 70
     0
  9
$CHAMFERA
 40
10.0
  9
$CHAMFERB
 40
10.0
  9
$SKPOLY
 70
     0
  9
$TDCREATE
 40
2454165.6815858218
  9
$TDUPDATE
 40
2455633.4861203241
  9
$TDINDWG
 40
0.2078184606
  9
$TDUSRTIMER
 40
0.2078184606
  9
$USRTIMER
 70
     1
  9
$ANGBASE
 50
0.0
  9
$ANGDIR
 70
     0
  9
$PDMODE
 70
     0
  9
$PDSIZE
 40
0.0
  9
$PLINEWID
 40
0.0
  9
$COORDS
 70
     0
  9
$SPLFRAME
 70
     0
  9
$SPLINETYPE
 70
     6
  9
$SPLINESEGS
 70
     8
  9
$ATTDIA
 70
     0
  9
$ATTREQ
 70
     1
  9
$HANDLING
 70
     1
  9
$HANDSEED
  5
3D3
  9
$SURFTAB1
 70
     6
  9
$SURFTAB2
 70
     6
  9
$SURFTYPE
 70
     6
  9
$SURFU
 70
     6
  9
$SURFV
 70
     6
  9
$UCSNAME
  2

  9
$UCSORG
 10
0.0
 20
0.0
 30
0.0
  9
$UCSXDIR
 10
1.0
 20
0.0
 30
0.0
  9
$UCSYDIR
 10
0.0
 20
1.0
 30
0.0
  9
$PUCSNAME
  2

  9
$PUCSORG
 10
0.0
 20
0.0
 30
0.0
  9
$PUCSXDIR
 10
1.0
 20
0.0
 30
0.0
  9
$PUCSYDIR
 10
0.0
 20
1.0
 30
0.0
  9
$USERI1
 70
     0
  9
$USERI2
 70
     0
  9
$USERI3
 70
     0
  9
$USERI4
 70
     0
  9
$USERI5
 70
     0
  9
$USERR1
 40
0.0
  9
$USERR2
 40
0.0
  9
$USERR3
 40
0.0
  9
$USERR4
 40
0.0
  9
$USERR5
 40
0.0
  9
$WORLDVIEW
 70
     1
  9
$SHADEDGE
 70
     3
  9
$SHADEDIF
 70
    70
  9
$TILEMODE
 70
     1
  9
$MAXACTVP
 70
    64
  9
$PLIMCHECK
 70
     0
  9
$PEXTMIN
 10
0.0
 20
0.0
 30
0.0
  9
$PEXTMAX
 10
0.0
 20
0.0
 30
0.0
  9
$PLIMMIN
 10
0.0
 20
0.0
  9
$PLIMMAX
 10
12.0
 20
9.0
  9
$UNITMODE
 70
     0
  9
$VISRETAIN
 70
     1
  9
$PLINEGEN
 70
     0
  9
$PSLTSCALE
 70
     1
  0
ENDSEC
  0
SECTION
  2
TABLES
  0
TABLE
  2
VPORT
 70
     4
  0
VPORT
  2
*ACTIVE
 70
     0
 10
0.0
 20
0.0
 11
1.0
 21
1.0
 12
14798.333911652049
 22
62953.339916059878
 13
0.0
 23
0.0
 14
10.0
 24
10.0
 15
10.0
 25
10.0
 16
0.0
 26
0.0
 36
1.0
 17
0.0
 27
0.0
 37
0.0
 40
15613.366199411959
 41
1.6793478260869561
 42
50.0
 43
0.0
 44
0.0
 50
0.0
 51
0.0
 71
     0
 72
   100
 73
     1
 74
     1
 75
     0
 76
     0
 77
     0
 78
     0
  0
ENDTAB
  0
TABLE
  2
LTYPE
 70
     2
  0
LTYPE
  2
CONTINUOUS
 70
     0
  3
Solid line
 72
    65
 73
     0
 40
0.0
  0
LTYPE
  2
CENTER
 70
     0
  3
____ _ ____ _ ____ _ ____ _ ____ _ ____ _ ____ 
 72
    65
 73
     4
 40
2.0
 49
1.25
 49
-0.25
 49
0.25
 49
-0.25
  0
ENDTAB
  0
TABLE
  2
LAYER
 70
     6
  0
LAYER
  2
0
 70
     0
 62
     7
  6
CONTINUOUS
  0
LAYER
  2
CENTER
 70
     0
 62
     6
  6
CENTER
  0
LAYER
  2
HONTAIGAIKEI
 70
     0
 62
     2
  6
CONTINUOUS
  0
LAYER
  2
DOUSEN
 70
     0
 62
     3
  6
CONTINUOUS
  0
LAYER
  2
HONTAI
 70
     0
 62
     2
  6
CONTINUOUS
  0
LAYER
  2
SAIBU
 70
     0
 62
     1
  6
CONTINUOUS
  0
ENDTAB
  0
TABLE
  2
STYLE
 70
     1
  0
STYLE
  2
STANDARD
 70
     0
 40
0.0
 41
1.0
 50
0.0
 71
     0
 42
2.5
  3
txt.shx
  4
extfont2.shx
  0
ENDTAB
  0
TABLE
  2
VIEW
 70
     0
  0
ENDTAB
  0
TABLE
  2
UCS
 70
     0
  0
ENDTAB
  0
TABLE
  2
APPID
 70
     6
  0
APPID
  2
ACAD
 70
     0
  0
APPID
  2
RAK
 70
     0
  0
APPID
  2
ACAD_DSTYLE_DIMJOGGED_JOGA
 70
     0
  0
APPID
  2
ACAD_DSTYLE_DIMEXT_ENABLED
 70
     0
  0
APPID
  2
ACAD_DSTYLE_DIMEXT_LENGTH
 70
     0
  0
APPID
  2
ACAD_DSTYLE_DIMARC_LENGTH_
 70
     0
  0
ENDTAB
  0
TABLE
  2
DIMSTYLE
 70
     1
  0
DIMSTYLE
  2
STANDARD
 70
     0
  3

  4

  5

  6

  7

 40
100.0
 41
0.18
 42
0.0625
 43
0.38
 44
0.14
 45
0.0
 46
0.0
 47
0.0
 48
0.0
140
0.18
141
0.09
142
0.0
143
25.399999999999999
144
1.0
145
0.0
146
1.0
147
0.05
 71
     0
 72
     0
 73
     0
 74
     0
 75
     0
 76
     0
 77
     1
 78
     0
170
     0
171
     2
172
     1
173
     0
174
     0
175
     0
176
     0
177
     0
178
     0
  0
ENDTAB
  0
ENDSEC
  0
SECTION
  2
BLOCKS
  0
BLOCK
  8
0
  2
$MODEL_SPACE
 70
     0
 10
0.0
 20
0.0
 30
0.0
  3
$MODEL_SPACE
  1

  0
ENDBLK
  5
C
  8
0
  0
BLOCK
 67
     1
  8
0
  2
$PAPER_SPACE
 70
     0
 10
0.0
 20
0.0
 30
0.0
  3
$PAPER_SPACE
  1

  0
ENDBLK
  5
11
 67
     1
  8
0
  0
ENDSEC
  0
SECTION
  2
ENTITIES
  0
ARC
  5
34
  8
SAIBU
 10
25615.103072198079
 20
65686.495776620985
 30
0.0
 40
599.79286841877274
 50
255.95821827638369
 51
284.04178172361628
  0
CIRCLE
  5
35
  8
SAIBU
 10
25615.103072198312
 20
65041.972311706442
 30
0.0
 40
44.730596495763159
  0
CIRCLE
  5
36
  8
SAIBU
 10
25615.103072198312
 20
65041.972311706442
 30
0.0
 40
31.70679407425132
  0
LINE
  5
37
  8
SAIBU
 10
26314.288484599179
 20
65291.494348814362
 30
0.0
 11
26105.216612079741
 21
65291.494348814282
 31
0.0
  0
LINE
  5
38
  8
SAIBU
 10
26105.216612079741
 20
65291.49434881426
 30
0.0
 11
26209.75254833934
 21
65472.55590163295
 31
0.0
  0
LINE
  5
39
  8
SAIBU
 10
26314.288484599179
 20
65291.494348814347
 30
0.0
 11
26209.75254833934
 21
65472.55590163295
 31
0.0
  0
CIRCLE
  5
3A
  8
SAIBU
 10
25873.927437037019
 20
65366.596946316502
 30
0.0
 40
58.245458369841799
  0
CIRCLE
  5
3B
  8
SAIBU
 10
26029.374927117751
 20
65366.596946316553
 30
0.0
 40
58.245458369841799
  0
CIRCLE
  5
3C
  8
SAIBU
 10
25873.927437037019
 20
65366.596946316502
 30
0.0
 40
37.237999808758559
  0
CIRCLE
  5
3D
  8
SAIBU
 10
26029.374927117751
 20
65366.596946316553
 30
0.0
 40
37.237999808758559
  0
CIRCLE
  5
3E
  8
SAIBU
 10
23680.831217279629
 20
65366.59694631608
 30
0.0
 40
37.237999808758559
  0
CIRCLE
  5
3F
  8
SAIBU
 10
23836.27870736035
 20
65366.59694631608
 30
0.0
 40
37.237999808758559
  0
CIRCLE
  5
40
  8
SAIBU
 10
24095.103072199181
 20
65041.972311706137
 30
0.0
 40
31.70679407425132
  0
CIRCLE
  5
41
  8
SAIBU
 10
24095.103072199181
 20
65041.972311706137
 30
0.0
 40
44.730596495763159
  0
ARC
  5
42
  8
SAIBU
 10
24095.103072199181
 20
65686.495776620679
 30
0.0
 40
599.79286841877274
 50
255.95821827638369
 51
284.04178172361628
  0
CIRCLE
  5
43
  8
SAIBU
 10
23680.831217279629
 20
65366.59694631608
 30
0.0
 40
58.245458369841799
  0
CIRCLE
  5
44
  8
SAIBU
 10
23836.27870736035
 20
65366.59694631608
 30
0.0
 40
58.245458369841799
  0
LINE
  5
45
  8
SAIBU
 10
23395.917659798259
 20
65291.494348813751
 30
0.0
 11
23500.453596057981
 21
65472.555901632411
 31
0.0
  0
LINE
  5
46
  8
SAIBU
 10
23604.989532317712
 20
65291.494348813751
 30
0.0
 11
23500.453596057981
 21
65472.555901632411
 31
0.0
  0
LINE
  5
47
  8
SAIBU
 10
23395.917659798259
 20
65291.494348813772
 30
0.0
 11
23604.989532317712
 21
65291.494348813772
 31
0.0
  0
LINE
  5
48
  8
SAIBU
 10
24855.103072198599
 20
65553.324805125943
 30
0.0
 11
25113.231490007918
 21
65553.324805125943
 31
0.0
  0
LINE
  5
49
  8
SAIBU
 10
25113.231490007918
 20
65553.324805125943
 30
0.0
 11
25113.231490007918
 21
65336.08093240187
 31
0.0
  0
LINE
  5
4A
  8
SAIBU
 10
25113.231490007918
 20
65336.08093240187
 30
0.0
 11
24855.103072198541
 21
65336.080932401863
 31
0.0
  0
LINE
  5
4B
  8
SAIBU
 10
25113.231490007918
 20
65480.910270111912
 30
0.0
 11
25156.715651716779
 21
65480.910270111912
 31
0.0
  0
LINE
  5
4C
  8
SAIBU
 10
25113.231490007918
 20
65408.495467415902
 30
0.0
 11
25156.715651716779
 21
65408.495467415902
 31
0.0
  0
LINE
  5
4D
  8
SAIBU
 10
25156.715651716779
 20
65480.910270111912
 30
0.0
 11
25156.715651716779
 21
65408.495467415902
 31
0.0
  0
LINE
  5
4E
  8
SAIBU
 10
24553.49049268043
 20
65480.910270111912
 30
0.0
 11
24553.49049268043
 21
65408.495467415902
 31
0.0
  0
LINE
  5
4F
  8
SAIBU
 10
24596.97465438928
 20
65408.495467415902
 30
0.0
 11
24553.49049268043
 21
65408.495467415902
 31
0.0
  0
LINE
  5
50
  8
SAIBU
 10
24596.97465438928
 20
65480.910270111912
 30
0.0
 11
24553.49049268043
 21
65480.910270111912
 31
0.0
  0
LINE
  5
51
  8
SAIBU
 10
24596.97465438928
 20
65336.08093240187
 30
0.0
 11
24855.103072198661
 21
65336.080932401863
 31
0.0
  0
LINE
  5
52
  8
SAIBU
 10
24596.97465438928
 20
65553.324805125943
 30
0.0
 11
24596.97465438928
 21
65336.08093240187
 31
0.0
  0
LINE
  5
53
  8
SAIBU
 10
24855.103072198599
 20
65553.324805125943
 30
0.0
 11
24596.97465438928
 21
65553.324805125943
 31
0.0
  0
LINE
  5
54
  8
SAIBU
 10
24385.103072198661
 20
65116.972922337787
 30
0.0
 11
24385.103072198661
 21
65244.732066663659
 31
0.0
  0
LINE
  5
55
  8
SAIBU
 10
25325.103072198719
 20
65116.972922337787
 30
0.0
 11
25325.103072198719
 21
65244.732066663659
 31
0.0
  0
LINE
  5
56
  8
SAIBU
 10
24385.103072198719
 20
65116.97292233778
 30
0.0
 11
25325.103072198719
 21
65116.972922337787
 31
0.0
  0
LINE
  5
57
  8
HONTAI
 10
24530.10307219861
 20
65624.732066663651
 30
0.0
 11
24530.103072198661
 21
65244.732066663673
 31
0.0
  0
LINE
  5
59
  8
HONTAI
 10
25180.103072198599
 20
65624.732066663651
 30
0.0
 11
25180.103072198599
 21
65244.732066663673
 31
0.0
  0
LINE
  5
5A
  8
HONTAI
 10
23360.10307219861
 20
65244.732066663659
 30
0.0
 11
26350.103072198599
 21
65244.732066663659
 31
0.0
  0
LINE
  5
5B
  8
HONTAI
 10
23360.103072198781
 20
65624.732066663651
 30
0.0
 11
26350.103072198661
 21
65624.732066663651
 31
0.0
  0
LINE
  5
5C
  8
HONTAI
 62
     2
 10
26350.103072198661
 20
65624.732066663651
 30
0.0
 11
26350.103072198552
 21
65244.732066663673
 31
0.0
  0
LINE
  5
5D
  8
HONTAI
 62
     2
 10
23360.103072198541
 20
65624.732066663651
 30
0.0
 11
23360.10307219861
 21
65244.732066663659
 31
0.0
  0
LINE
  5
5E
  8
CENTER
 10
25190.103072198552
 20
65349.278858806319
 30
0.0
 11
25190.103072198599
 21
64662.151116460591
 31
0.0
  0
LINE
  5
61
  8
CENTER
 10
24520.103072198661
 20
65349.278858806319
 30
0.0
 11
24520.103072198661
 21
64662.151116460591
 31
0.0
  0
LINE
  5
62
  8
CENTER
 10
26040.103072198599
 20
65349.278858806319
 30
0.0
 11
26040.103072198661
 21
64662.151116460598
 31
0.0
  0
LINE
  5
63
  8
CENTER
 10
23670.103072198661
 20
65349.278858806319
 30
0.0
 11
23670.103072198599
 21
64662.151116460598
 31
0.0
  0
LINE
  5
64
  8
SAIBU
 10
26319.575689223569
 20
65244.732066663659
 30
0.0
 11
26319.575689223861
 21
65000.635934591737
 31
0.0
  0
LINE
  5
65
  8
SAIBU
 10
25760.630455173639
 20
65000.635934591737
 30
0.0
 11
26319.57568922374
 21
65000.635934591737
 31
0.0
  0
LINE
  5
66
  8
SAIBU
 10
25760.630455173519
 20
65244.732066663659
 30
0.0
 11
25760.630455173701
 21
65000.635934591737
 31
0.0
  0
LINE
  5
67
  8
SAIBU
 10
25469.575689223511
 20
65244.732066663659
 30
0.0
 11
25469.575689223861
 21
65000.635934591737
 31
0.0
  0
LINE
  5
68
  8
SAIBU
 10
24910.630455173639
 20
65000.635934591737
 30
0.0
 11
25469.57568922374
 21
65000.635934591737
 31
0.0
  0
LINE
  5
69
  8
SAIBU
 10
24910.630455173581
 20
65116.97292233778
 30
0.0
 11
24910.630455173701
 21
65000.635934591737
 31
0.0
  0
LINE
  5
6A
  8
SAIBU
 10
24799.575689223799
 20
65116.972922337787
 30
0.0
 11
24799.57568922397
 21
65000.63593459173
 31
0.0
  0
LINE
  5
6B
  8
SAIBU
 10
24240.630455173748
 20
65000.63593459173
 30
0.0
 11
24799.575689223861
 21
65000.63593459173
 31
0.0
  0
LINE
  5
6C
  8
SAIBU
 10
24240.630455173581
 20
65244.732066663659
 30
0.0
 11
24240.630455173821
 21
65000.63593459173
 31
0.0
  0
LINE
  5
6D
  8
SAIBU
 10
23949.575689223569
 20
65244.732066663659
 30
0.0
 11
23949.57568922397
 21
65000.635934591752
 31
0.0
  0
LINE
  5
6E
  8
SAIBU
 10
23390.630455173581
 20
65244.732066663659
 30
0.0
 11
23390.63045517381
 21
65000.635934591752
 31
0.0
  0
LINE
  5
6F
  8
SAIBU
 10
23390.630455173748
 20
65000.635934591752
 30
0.0
 11
23949.575689223861
 21
65000.635934591752
 31
0.0
  0
LINE
  5
70
  8
DOUSEN
 62
     3
 10
23024.702652732449
 20
64774.732066663659
 30
0.0
 11
26685.503491664771
 21
64774.732066663659
 31
0.0
  0
ARC
  5
72
  8
SAIBU
 10
23545.103072198781
 20
64873.719351814339
 30
0.0
 40
130.0
 50
180.0
 51
222.0716316570643
  0
ARC
  5
73
  8
SAIBU
 10
23525.103072198541
 20
64873.719351814339
 30
0.0
 40
130.0
 50
317.9283683429357
 51
0.0
  0
LINE
  5
74
  8
HONTAIGAIKEI
 62
     2
 10
23448.603072198661
 20
64774.732066663659
 30
0.0
 11
23621.603072198661
 21
64774.732066663659
 31
0.0
  0
ARC
  5
76
  8
SAIBU
 10
23815.103072198781
 20
64873.719351814339
 30
0.0
 40
130.0
 50
180.0
 51
222.0716316570643
  0
LINE
  5
77
  8
HONTAIGAIKEI
 62
     2
 10
23718.603072198661
 20
64774.732066663659
 30
0.0
 11
23891.603072198661
 21
64774.732066663659
 31
0.0
  0
ARC
  5
78
  8
SAIBU
 10
23795.103072198552
 20
64873.719351814339
 30
0.0
 40
130.0
 50
317.9283683429357
 51
0.0
  0
LINE
  5
79
  8
SAIBU
 10
23655.103072198599
 20
65000.635934591752
 30
0.0
 11
23655.103072198541
 21
64873.719351814339
 31
0.0
  0
LINE
  5
7A
  8
SAIBU
 10
23415.103072198781
 20
65000.635934591752
 30
0.0
 11
23415.103072198781
 21
64873.719351814339
 31
0.0
  0
LINE
  5
7B
  8
SAIBU
 10
23685.103072198719
 20
65000.635934591752
 30
0.0
 11
23685.103072198781
 21
64873.719351814339
 31
0.0
  0
LINE
  5
7C
  8
SAIBU
 10
23925.103072198661
 20
65000.635934591752
 30
0.0
 11
23925.103072198552
 21
64873.719351814339
 31
0.0
  0
LINE
  5
7D
  8
CENTER
 62
     6
 10
23670.103072198781
 20
64661.949858765329
 30
0.0
 11
23670.103072198781
 21
65349.278858806319
 31
0.0
  0
LINE
  5
7E
  8
CENTER
 62
     6
 10
23535.103072198661
 20
64730.907501398447
 30
0.0
 11
23535.103072198599
 21
65282.00756544232
 31
0.0
  0
LINE
  5
7F
  8
HONTAIGAIKEI
 62
     2
 10
23621.603072198661
 20
64774.732066663659
 30
0.0
 11
23621.603072198781
 21
65000.635934591752
 31
0.0
  0
LINE
  5
80
  8
HONTAIGAIKEI
 62
     2
 10
23448.603072198661
 20
64774.732066663659
 30
0.0
 11
23448.603072198719
 21
65000.635934591752
 31
0.0
  0
LINE
  5
81
  8
HONTAIGAIKEI
 62
     2
 10
23718.603072198661
 20
64774.732066663659
 30
0.0
 11
23718.603072198719
 21
65000.635934591752
 31
0.0
  0
LINE
  5
82
  8
CENTER
 62
     6
 10
23805.103072198661
 20
64730.907501398447
 30
0.0
 11
23805.103072198599
 21
65282.00756544232
 31
0.0
  0
LINE
  5
83
  8
HONTAIGAIKEI
 62
     2
 10
23891.603072198661
 20
64774.732066663659
 30
0.0
 11
23891.603072198719
 21
65000.635934591752
 31
0.0
  0
LINE
  5
84
  8
HONTAIGAIKEI
 62
     2
 10
24298.603072198661
 20
64774.732066663651
 30
0.0
 11
24471.603072198661
 21
64774.732066663651
 31
0.0
  0
LINE
  5
85
  8
SAIBU
 10
24265.103072198719
 20
65000.63593459173
 30
0.0
 11
24265.103072198781
 21
64873.719351814332
 31
0.0
  0
ARC
  5
86
  8
SAIBU
 10
24395.103072198781
 20
64873.719351814332
 30
0.0
 40
130.0
 50
180.0
 51
222.0716316570643
  0
ARC
  5
87
  8
SAIBU
 10
24375.103072198541
 20
64873.719351814332
 30
0.0
 40
130.0
 50
317.9283683429357
 51
0.0
  0
LINE
  5
88
  8
SAIBU
 10
24505.103072198719
 20
65000.635934591737
 30
0.0
 11
24505.103072198541
 21
64873.719351814332
 31
0.0
  0
LINE
  5
89
  8
HONTAIGAIKEI
 62
     2
 10
24568.603072198661
 20
64774.732066663651
 30
0.0
 11
24741.603072198661
 21
64774.732066663651
 31
0.0
  0
LINE
  5
8A
  8
SAIBU
 10
24775.103072198541
 20
65000.635934591737
 30
0.0
 11
24775.103072198541
 21
64873.719351814332
 31
0.0
  0
ARC
  5
8B
  8
SAIBU
 10
24645.103072198552
 20
64873.719351814332
 30
0.0
 40
130.0
 50
317.9283683429357
 51
0.0
  0
LINE
  5
8C
  8
SAIBU
 10
24535.103072198661
 20
65000.635934591737
 30
0.0
 11
24535.103072198781
 21
64873.719351814332
 31
0.0
  0
ARC
  5
8D
  8
SAIBU
 10
24665.103072198781
 20
64873.719351814332
 30
0.0
 40
130.0
 50
180.0
 51
222.0716316570643
  0
LINE
  5
8E
  8
CENTER
 62
     6
 10
24520.103072198781
 20
64661.949858765322
 30
0.0
 11
24520.103072198839
 21
65349.278858806319
 31
0.0
  0
LINE
  5
8F
  8
HONTAIGAIKEI
 62
     2
 10
24298.603072198661
 20
64774.732066663651
 30
0.0
 11
24298.603072198719
 21
65000.635934591737
 31
0.0
  0
LINE
  5
90
  8
HONTAIGAIKEI
 62
     2
 10
24471.603072198661
 20
64774.732066663651
 30
0.0
 11
24471.603072198719
 21
65000.635934591737
 31
0.0
  0
LINE
  5
91
  8
CENTER
 10
24385.103072198661
 20
64730.90750139844
 30
0.0
 11
24385.103072198661
 21
65116.97292233778
 31
0.0
  0
LINE
  5
92
  8
CENTER
 10
24655.103072198661
 20
64730.90750139844
 30
0.0
 11
24655.103072198661
 21
65282.00756544232
 31
0.0
  0
LINE
  5
93
  8
HONTAIGAIKEI
 62
     2
 10
24568.603072198661
 20
64774.732066663651
 30
0.0
 11
24568.603072198719
 21
65000.635934591737
 31
0.0
  0
LINE
  5
94
  8
HONTAIGAIKEI
 62
     2
 10
24741.603072198661
 20
64774.732066663651
 30
0.0
 11
24741.603072198719
 21
65000.635934591752
 31
0.0
  0
LINE
  5
95
  8
SAIBU
 10
25205.103072198839
 20
65000.635934591737
 30
0.0
 11
25205.103072198839
 21
64873.719351814339
 31
0.0
  0
ARC
  5
96
  8
SAIBU
 10
25335.103072198832
 20
64873.719351814339
 30
0.0
 40
130.0
 50
180.0
 51
222.0716316570643
  0
ARC
  5
97
  8
SAIBU
 10
25315.103072198661
 20
64873.719351814339
 30
0.0
 40
130.0
 50
317.9283683429357
 51
0.0
  0
LINE
  5
98
  8
SAIBU
 10
25445.103072198719
 20
65000.635934591752
 30
0.0
 11
25445.103072198661
 21
64873.719351814339
 31
0.0
  0
LINE
  5
99
  8
HONTAIGAIKEI
 62
     2
 10
25411.603072198781
 20
64774.732066663659
 30
0.0
 11
25238.603072198781
 21
64774.732066663659
 31
0.0
  0
LINE
  5
9A
  8
SAIBU
 10
25175.103072198781
 20
65000.635934591737
 30
0.0
 11
25175.103072198661
 21
64873.719351814339
 31
0.0
  0
ARC
  5
9B
  8
SAIBU
 10
25045.103072198661
 20
64873.719351814339
 30
0.0
 40
130.0
 50
317.9283683429357
 51
0.0
  0
ARC
  5
9C
  8
SAIBU
 10
25065.103072198839
 20
64873.719351814339
 30
0.0
 40
130.0
 50
180.0
 51
222.0716316570643
  0
LINE
  5
9D
  8
SAIBU
 10
24935.103072198781
 20
65000.635934591737
 30
0.0
 11
24935.103072198839
 21
64873.719351814339
 31
0.0
  0
LINE
  5
9E
  8
HONTAIGAIKEI
 62
     2
 10
25141.603072198781
 20
64774.732066663659
 30
0.0
 11
24968.603072198781
 21
64774.732066663659
 31
0.0
  0
LINE
  5
9F
  8
CENTER
 62
     6
 10
25190.103072198661
 20
64661.949858765329
 30
0.0
 11
25190.103072198661
 21
65349.278858806319
 31
0.0
  0
LINE
  5
A0
  8
CENTER
 10
25325.103072198781
 20
64730.907501398447
 30
0.0
 11
25325.103072198781
 21
65116.972922337787
 31
0.0
  0
LINE
  5
A1
  8
HONTAIGAIKEI
 62
     2
 10
25238.603072198781
 20
64774.732066663659
 30
0.0
 11
25238.603072198839
 21
65000.635934591737
 31
0.0
  0
LINE
  5
A2
  8
HONTAIGAIKEI
 62
     2
 10
25411.603072198781
 20
64774.732066663659
 30
0.0
 11
25411.603072198781
 21
65000.635934591752
 31
0.0
  0
LINE
  5
A3
  8
HONTAIGAIKEI
 62
     2
 10
24968.603072198781
 20
64774.732066663659
 30
0.0
 11
24968.603072198719
 21
65000.635934591737
 31
0.0
  0
LINE
  5
A4
  8
HONTAIGAIKEI
 62
     2
 10
25141.603072198781
 20
64774.732066663659
 30
0.0
 11
25141.603072198781
 21
65000.635934591737
 31
0.0
  0
LINE
  5
A5
  8
CENTER
 62
     6
 10
25055.103072198781
 20
64730.907501398447
 30
0.0
 11
25055.103072198719
 21
65282.00756544232
 31
0.0
  0
LINE
  5
A6
  8
HONTAIGAIKEI
 62
     2
 10
26261.603072198781
 20
64774.732066663659
 30
0.0
 11
26088.603072198781
 21
64774.732066663659
 31
0.0
  0
ARC
  5
A7
  8
SAIBU
 10
26185.103072198839
 20
64873.719351814339
 30
0.0
 40
130.0
 50
180.0
 51
222.0716316570643
  0
LINE
  5
A8
  8
SAIBU
 10
26055.103072198832
 20
65000.635934591737
 30
0.0
 11
26055.103072198832
 21
64873.719351814339
 31
0.0
  0
ARC
  5
A9
  8
SAIBU
 10
25895.103072198661
 20
64873.719351814339
 30
0.0
 40
130.0
 50
317.9283683429357
 51
0.0
  0
LINE
  5
AA
  8
SAIBU
 10
26025.103072198781
 20
65000.635934591737
 30
0.0
 11
26025.103072198661
 21
64873.719351814339
 31
0.0
  0
LINE
  5
AB
  8
HONTAIGAIKEI
 62
     2
 10
25991.603072198781
 20
64774.732066663659
 30
0.0
 11
25818.603072198781
 21
64774.732066663659
 31
0.0
  0
LINE
  5
AC
  8
SAIBU
 10
25785.103072198901
 20
65000.635934591737
 30
0.0
 11
25785.103072198839
 21
64873.719351814339
 31
0.0
  0
ARC
  5
AD
  8
SAIBU
 10
25915.103072198839
 20
64873.719351814339
 30
0.0
 40
130.0
 50
180.0
 51
222.0716316570643
  0
ARC
  5
AE
  8
SAIBU
 10
26165.103072198661
 20
64873.719351814339
 30
0.0
 40
130.0
 50
317.9283683429357
 51
0.0
  0
LINE
  5
AF
  8
SAIBU
 10
26295.103072198832
 20
65000.635934591752
 30
0.0
 11
26295.103072198661
 21
64873.719351814339
 31
0.0
  0
LINE
  5
B0
  8
CENTER
 62
     6
 10
26040.103072198661
 20
64661.949858765329
 30
0.0
 11
26040.103072198661
 21
65349.278858806319
 31
0.0
  0
LINE
  5
B1
  8
HONTAIGAIKEI
 62
     2
 10
26261.603072198781
 20
64774.732066663659
 30
0.0
 11
26261.603072198781
 21
65000.635934591752
 31
0.0
  0
LINE
  5
B2
  8
HONTAIGAIKEI
 62
     2
 10
26088.603072198781
 20
64774.732066663659
 30
0.0
 11
26088.603072198781
 21
65000.635934591752
 31
0.0
  0
LINE
  5
B3
  8
CENTER
 62
     6
 10
26175.103072198781
 20
64730.907501398447
 30
0.0
 11
26175.103072198781
 21
65282.00756544232
 31
0.0
  0
LINE
  5
B4
  8
CENTER
 62
     6
 10
25905.103072198781
 20
64730.907501398447
 30
0.0
 11
25905.103072198719
 21
65282.00756544232
 31
0.0
  0
LINE
  5
B5
  8
HONTAIGAIKEI
 62
     2
 10
25991.603072198781
 20
64774.732066663659
 30
0.0
 11
25991.603072198719
 21
65000.635934591737
 31
0.0
  0
LINE
  5
B6
  8
HONTAIGAIKEI
 62
     2
 10
25818.603072198781
 20
64774.732066663659
 30
0.0
 11
25818.603072198719
 21
65000.635934591737
 31
0.0
  0
LINE
  5
B7
  8
CENTER
 10
24855.103072198661
 20
66500.620601460949
 30
0.0
 11
24855.103072198599
 21
64528.178282898887
 31
0.0
  0
LINE
  5
B8
  8
HONTAI
 10
18858.709037724038
 20
65271.309584787094
 30
0.0
 11
18871.803581951212
 21
65271.100868986177
 31
0.0
  0
LINE
  5
B9
  8
HONTAI
 10
18824.302318421389
 20
65152.545263196611
 30
0.0
 11
18858.709037724038
 21
65271.309584787094
 31
0.0
  0
LINE
  5
BA
  8
HONTAI
 10
18860.520199102379
 20
65112.581927813313
 30
0.0
 11
18824.302318421389
 21
65152.545263196611
 31
0.0
  0
LINE
  5
BB
  8
SAIBU
 10
13415.694680674091
 20
65168.985347696151
 30
0.0
 11
13415.694680674091
 21
65240.599442988263
 31
0.0
  0
LINE
  5
BC
  8
SAIBU
 10
13261.5985894317
 20
65168.985347696151
 30
0.0
 11
13415.694680674091
 21
65168.985347696151
 31
0.0
  0
LINE
  5
BD
  8
SAIBU
 10
13261.5985894317
 20
65240.599442988263
 30
0.0
 11
13261.5985894317
 21
65168.985347696151
 31
0.0
  0
LINE
  5
BE
  8
SAIBU
 10
13415.694680674091
 20
65240.599442988263
 30
0.0
 11
13261.5985894317
 21
65240.599442988263
 31
0.0
  0
LINE
  5
BF
  8
SAIBU
 10
18403.28809528545
 20
65298.510579655092
 30
0.0
 11
18440.166023796341
 21
65298.5105796551
 31
0.0
  0
LINE
  5
C0
  8
SAIBU
 10
17703.288095285439
 20
65298.510579655092
 30
0.0
 11
17740.16602379633
 21
65298.5105796551
 31
0.0
  0
LINE
  5
C1
  8
SAIBU
 10
17003.288095285439
 20
65298.510579655092
 30
0.0
 11
17040.16602379633
 21
65298.5105796551
 31
0.0
  0
LINE
  5
C2
  8
SAIBU
 10
16303.288095285439
 20
65298.510579655092
 30
0.0
 11
16340.166023796341
 21
65298.5105796551
 31
0.0
  0
LINE
  5
C3
  8
SAIBU
 10
15603.288095285439
 20
65298.510579655092
 30
0.0
 11
15640.16602379633
 21
65298.5105796551
 31
0.0
  0
LINE
  5
C4
  8
SAIBU
 10
14903.288095285439
 20
65298.510579655092
 30
0.0
 11
14940.16602379633
 21
65298.5105796551
 31
0.0
  0
LINE
  5
C5
  8
SAIBU
 10
14203.288095285439
 20
65298.510579655092
 30
0.0
 11
14240.16602379633
 21
65298.5105796551
 31
0.0
  0
LINE
  5
C6
  8
SAIBU
 10
13503.288095285439
 20
65298.510579655092
 30
0.0
 11
13540.166023796341
 21
65298.5105796551
 31
0.0
  0
LINE
  5
C7
  8
SAIBU
 10
12803.288095285439
 20
65298.510579655092
 30
0.0
 11
12840.16602379633
 21
65298.5105796551
 31
0.0
  0
LINE
  5
C8
  8
SAIBU
 10
18403.28809528545
 20
65136.144264694849
 30
0.0
 11
18440.166023796341
 21
65136.144264694849
 31
0.0
  0
LINE
  5
C9
  8
SAIBU
 10
18403.28809528545
 20
65298.510579655092
 30
0.0
 11
18403.28809528545
 21
65136.144264694849
 31
0.0
  0
LINE
  5
CA
  8
SAIBU
 10
18440.166023796341
 20
65136.144264694849
 30
0.0
 11
18440.166023796341
 21
65298.510579655092
 31
0.0
  0
LINE
  5
CB
  8
SAIBU
 10
17703.288095285439
 20
65136.144264694849
 30
0.0
 11
17740.16602379633
 21
65136.144264694849
 31
0.0
  0
LINE
  5
CC
  8
SAIBU
 10
17703.288095285439
 20
65298.510579655092
 30
0.0
 11
17703.288095285439
 21
65136.144264694849
 31
0.0
  0
LINE
  5
CD
  8
SAIBU
 10
17740.16602379633
 20
65136.144264694849
 30
0.0
 11
17740.16602379633
 21
65298.510579655092
 31
0.0
  0
LINE
  5
CE
  8
SAIBU
 10
17003.288095285439
 20
65136.144264694849
 30
0.0
 11
17040.16602379633
 21
65136.144264694849
 31
0.0
  0
LINE
  5
CF
  8
SAIBU
 10
17003.288095285439
 20
65298.510579655092
 30
0.0
 11
17003.288095285439
 21
65136.144264694849
 31
0.0
  0
LINE
  5
D0
  8
SAIBU
 10
17040.16602379633
 20
65136.144264694849
 30
0.0
 11
17040.16602379633
 21
65298.510579655092
 31
0.0
  0
LINE
  5
D1
  8
SAIBU
 10
16303.288095285439
 20
65136.144264694849
 30
0.0
 11
16340.166023796341
 21
65136.144264694849
 31
0.0
  0
LINE
  5
D2
  8
SAIBU
 10
16303.288095285439
 20
65298.510579655092
 30
0.0
 11
16303.288095285439
 21
65136.144264694849
 31
0.0
  0
LINE
  5
D3
  8
SAIBU
 10
16340.166023796341
 20
65136.144264694849
 30
0.0
 11
16340.166023796341
 21
65298.510579655092
 31
0.0
  0
LINE
  5
D4
  8
SAIBU
 10
15603.288095285439
 20
65136.144264694849
 30
0.0
 11
15640.16602379633
 21
65136.144264694849
 31
0.0
  0
LINE
  5
D5
  8
SAIBU
 10
15603.288095285439
 20
65298.510579655092
 30
0.0
 11
15603.288095285439
 21
65136.144264694849
 31
0.0
  0
LINE
  5
D6
  8
SAIBU
 10
15640.16602379633
 20
65136.144264694849
 30
0.0
 11
15640.16602379633
 21
65298.510579655092
 31
0.0
  0
LINE
  5
D7
  8
SAIBU
 10
14903.288095285439
 20
65136.144264694849
 30
0.0
 11
14940.16602379633
 21
65136.144264694849
 31
0.0
  0
LINE
  5
D8
  8
SAIBU
 10
14903.288095285439
 20
65298.510579655092
 30
0.0
 11
14903.288095285439
 21
65136.144264694849
 31
0.0
  0
LINE
  5
D9
  8
SAIBU
 10
14940.16602379633
 20
65136.144264694849
 30
0.0
 11
14940.16602379633
 21
65298.510579655092
 31
0.0
  0
LINE
  5
DA
  8
SAIBU
 10
14203.288095285439
 20
65136.144264694849
 30
0.0
 11
14240.16602379633
 21
65136.144264694849
 31
0.0
  0
LINE
  5
DB
  8
SAIBU
 10
14203.288095285439
 20
65298.510579655092
 30
0.0
 11
14203.288095285439
 21
65136.144264694849
 31
0.0
  0
LINE
  5
DC
  8
SAIBU
 10
14240.16602379633
 20
65136.144264694849
 30
0.0
 11
14240.16602379633
 21
65298.510579655092
 31
0.0
  0
LINE
  5
DD
  8
SAIBU
 10
13503.288095285439
 20
65136.144264694849
 30
0.0
 11
13540.166023796341
 21
65136.144264694849
 31
0.0
  0
LINE
  5
DE
  8
SAIBU
 10
13503.288095285439
 20
65298.510579655092
 30
0.0
 11
13503.288095285439
 21
65136.144264694849
 31
0.0
  0
LINE
  5
DF
  8
SAIBU
 10
13540.166023796341
 20
65136.144264694849
 30
0.0
 11
13540.166023796341
 21
65298.510579655092
 31
0.0
  0
LINE
  5
E0
  8
SAIBU
 10
12803.288095285439
 20
65136.144264694849
 30
0.0
 11
12840.16602379633
 21
65136.144264694849
 31
0.0
  0
LINE
  5
E1
  8
SAIBU
 10
12803.288095285439
 20
65298.510579655092
 30
0.0
 11
12803.288095285439
 21
65136.144264694849
 31
0.0
  0
LINE
  5
E2
  8
SAIBU
 10
12840.16602379633
 20
65136.144264694849
 30
0.0
 11
12840.16602379633
 21
65298.510579655092
 31
0.0
  0
LINE
  5
E3
  8
SAIBU
 10
12103.288095285439
 20
65298.510579655092
 30
0.0
 11
12103.288095285439
 21
65136.144264694849
 31
0.0
  0
LINE
  5
E4
  8
SAIBU
 10
12103.288095285439
 20
65136.144264694849
 30
0.0
 11
12140.16602379633
 21
65136.144264694849
 31
0.0
  0
LINE
  5
E5
  8
SAIBU
 10
12140.16602379633
 20
65136.144264694849
 30
0.0
 11
12140.16602379633
 21
65298.510579655092
 31
0.0
  0
LINE
  5
E6
  8
SAIBU
 10
12103.288095285439
 20
65298.510579655092
 30
0.0
 11
12140.16602379633
 21
65298.5105796551
 31
0.0
  0
LINE
  5
E7
  8
SAIBU
 10
11668.30187021623
 20
65298.510579655092
 30
0.0
 11
11705.17979872712
 21
65298.5105796551
 31
0.0
  0
LINE
  5
E8
  8
SAIBU
 10
11705.17979872712
 20
65136.144264694849
 30
0.0
 11
11705.17979872712
 21
65298.510579655092
 31
0.0
  0
LINE
  5
E9
  8
SAIBU
 10
11668.30187021623
 20
65136.144264694849
 30
0.0
 11
11705.17979872712
 21
65136.144264694849
 31
0.0
  0
LINE
  5
EA
  8
SAIBU
 10
11668.30187021623
 20
65298.510579655092
 30
0.0
 11
11668.30187021623
 21
65136.144264694849
 31
0.0
  0
LINE
  5
EB
  8
SAIBU
 10
11532.79078273827
 20
65143.394875695063
 30
0.0
 11
11411.89079433601
 21
65235.513200262423
 31
0.0
  0
LINE
  5
EC
  8
SAIBU
 10
11532.79078273827
 20
65327.631524829783
 30
0.0
 11
11411.89079433601
 21
65235.513200262423
 31
0.0
  0
LINE
  5
ED
  8
SAIBU
 10
11532.79078273827
 20
65374.732066663659
 30
0.0
 11
11532.79078273827
 21
65109.732066663659
 31
0.0
  0
LINE
  5
EE
  8
SAIBU
 10
11341.78992646068
 20
65374.732066663659
 30
0.0
 11
11341.78992646068
 21
65109.732066663659
 31
0.0
  0
LINE
  5
EF
  8
HONTAI
 10
11847.017757979371
 20
65374.732066663659
 30
0.0
 11
11847.017757979371
 21
65109.732066663659
 31
0.0
  0
LINE
  5
F0
  8
HONTAI
 10
21741.670111489049
 20
64967.426452714608
 30
0.0
 11
21773.877459578711
 21
64961.78543245219
 31
0.0
  0
LINE
  5
F1
  8
HONTAI
 10
21778.8254167999
 20
65179.564292299387
 30
0.0
 11
21811.032764889511
 21
65173.923272036991
 31
0.0
  0
LINE
  5
F2
  8
HONTAI
 10
21741.670111489049
 20
64967.426452714608
 30
0.0
 11
21778.8254167999
 21
65179.564292299401
 31
0.0
  0
LINE
  5
F3
  8
HONTAI
 10
21773.877459578711
 20
64961.785432452198
 30
0.0
 11
21811.032764889562
 21
65173.923272037013
 31
0.0
  0
LINE
  5
F4
  8
HONTAI
 10
21693.79241981226
 20
64986.273853317507
 30
0.0
 11
21743.44792156664
 21
64977.57684135747
 31
0.0
  0
LINE
  5
F5
  8
HONTAI
 10
21736.82760398768
 20
65176.909256609251
 30
0.0
 11
21777.124236820349
 21
65169.851422425447
 31
0.0
  0
LINE
  5
F6
  8
SAIBU
 10
20912.731657979111
 20
65389.732066663651
 30
0.0
 11
20984.55070818917
 21
65308.668294960749
 31
0.0
  0
LINE
  5
F7
  8
SAIBU
 10
20815.049478789238
 20
65233.364058576059
 30
0.0
 11
20960.419965149631
 21
65113.330251723019
 31
0.0
  0
LINE
  5
F8
  8
SAIBU
 10
20675.150946183221
 20
65260.206104908561
 30
0.0
 11
20815.049478789238
 21
65233.364058576073
 31
0.0
  0
LINE
  5
F9
  8
SAIBU
 10
19796.920692092772
 20
65010.515984910722
 30
0.0
 11
19938.803576059141
 21
65010.515984910722
 31
0.0
  0
LINE
  5
FA
  8
SAIBU
 10
19811.40630664464
 20
65057.605922791481
 30
0.0
 11
19922.019105582989
 21
65057.605922791481
 31
0.0
  0
ARC
  5
FB
  8
SAIBU
 10
19772.017757979891
 20
65515.891828166299
 30
0.0
 40
451.91199075601207
 50
275.1152087043485
 51
288.42033546751861
  0
ARC
  5
FC
  8
SAIBU
 10
19772.017757979891
 20
65712.441284941189
 30
0.0
 40
451.91199075601207
 50
275.17475032524169
 51
290.05497350756838
  0
LINE
  5
FD
  8
SAIBU
 10
19605.23193989959
 20
65010.515984910722
 30
0.0
 11
19747.11482386585
 21
65010.515984910722
 31
0.0
  0
LINE
  5
FE
  8
SAIBU
 10
19622.016410375742
 20
65057.605922791481
 30
0.0
 11
19732.629209314029
 21
65057.605922791481
 31
0.0
  0
ARC
  5
FF
  8
SAIBU
 10
19772.017757979891
 20
65515.891828166299
 30
0.0
 40
451.91199075601207
 50
251.57966453248139
 51
264.8847912956515
  0
ARC
  5
100
  8
SAIBU
 10
19772.017757979891
 20
65712.441284941189
 30
0.0
 40
451.91199075601207
 50
249.94502649243151
 51
264.8252496747582
  0
ARC
  5
101
  8
SAIBU
 10
19772.017757962189
 20
66062.884082690871
 30
0.0
 40
1128.1520160207681
 50
259.89314264401889
 51
280.10685735923528
  0
CIRCLE
  5
102
  8
SAIBU
 10
19772.017757979309
 20
65037.85469250704
 30
0.0
 40
36.980549759267888
  0
LINE
  5
103
  8
SAIBU
 10
19731.258145642321
 20
65389.732066663659
 30
0.0
 11
19731.258145642321
 21
65070.0118431355
 31
0.0
  0
LINE
  5
104
  8
SAIBU
 10
19812.777370316289
 20
65389.732066663659
 30
0.0
 11
19812.777370316289
 21
65070.0118431355
 31
0.0
  0
LINE
  5
105
  8
SAIBU
 10
19731.258145642321
 20
65070.0118431355
 30
0.0
 11
19735.261000133261
 21
65033.792450128021
 31
0.0
  0
LINE
  5
106
  8
SAIBU
 10
19812.777370316289
 20
65070.0118431355
 30
0.0
 11
19808.774515825349
 21
65033.792450128021
 31
0.0
  0
LINE
  5
107
  8
SAIBU
 10
20862.777370316358
 20
65301.83930587308
 30
0.0
 11
20858.774515825411
 21
65265.619912865623
 31
0.0
  0
LINE
  5
108
  8
SAIBU
 10
20781.25814564238
 20
65301.83930587308
 30
0.0
 11
20785.26100013332
 21
65265.619912865623
 31
0.0
  0
LINE
  5
109
  8
SAIBU
 10
20862.777370316358
 20
65389.732066663659
 30
0.0
 11
20862.777370316358
 21
65301.83930587308
 31
0.0
  0
LINE
  5
10A
  8
SAIBU
 10
20781.25814564238
 20
65389.732066663659
 30
0.0
 11
20781.25814564238
 21
65301.83930587308
 31
0.0
  0
CIRCLE
  5
10B
  8
SAIBU
 10
20822.017757979371
 20
65269.682155244627
 30
0.0
 40
36.980549759267888
  0
LINE
  5
10C
  8
SAIBU
 10
20909.43375574952
 20
65424.732066663651
 30
0.0
 11
20909.433755749578
 21
65589.732066663651
 31
0.0
  0
LINE
  5
10D
  8
SAIBU
 10
20734.601760209101
 20
65424.732066663651
 30
0.0
 11
20734.60176020916
 21
65589.732066663651
 31
0.0
  0
LINE
  5
10E
  8
SAIBU
 10
19859.433755749571
 20
65424.732066663659
 30
0.0
 11
19859.433755749571
 21
65589.732066663651
 31
0.0
  0
LINE
  5
10F
  8
SAIBU
 10
19684.60176020916
 20
65424.732066663659
 30
0.0
 11
19684.60176020916
 21
65589.732066663651
 31
0.0
  0
LINE
  5
110
  8
SAIBU
 10
20822.017757979371
 20
65454.962496808592
 30
0.0
 11
20822.017757979371
 21
65559.615104675569
 31
0.0
  0
LINE
  5
111
  8
SAIBU
 10
19772.017757979309
 20
65454.962496808592
 30
0.0
 11
19772.01775797936
 21
65559.615104675584
 31
0.0
  0
LINE
  5
112
  8
HONTAI
 62
     2
 10
21637.706595054329
 20
65424.732066663659
 30
0.0
 11
21747.017757979371
 21
65424.732066663651
 31
0.0
  0
LINE
  5
113
  8
HONTAI
 10
18547.01775797936
 20
65374.732066663659
 30
0.0
 11
18547.01775797936
 21
65109.732066663659
 31
0.0
  0
LINE
  5
114
  8
HONTAI
 62
     2
 10
18547.01775797936
 20
65355.300066744392
 30
0.0
 11
18842.034903845841
 21
65355.300066744392
 31
0.0
  0
LINE
  5
115
  8
HONTAI
 62
     2
 10
18557.532066360429
 20
65390.300066744392
 30
0.0
 11
18926.27602862913
 21
65390.300066744392
 31
0.0
  0
ARC
  5
116
  8
HONTAI
 10
19007.994980844
 20
65074.732066663651
 30
0.0
 40
514.99999999999625
 50
90.0
 51
142.2111410340955
  0
ARC
  5
117
  8
HONTAI
 10
19007.994980844
 20
65074.732066663651
 30
0.0
 40
325.97722286463249
 50
103.9448390665809
 51
173.83630116983011
  0
LINE
  5
118
  8
HONTAI
 62
     2
 10
20587.706595054329
 20
65424.732066663651
 30
0.0
 11
21056.328920904401
 21
65424.732066663659
 31
0.0
  0
LINE
  5
119
  8
HONTAI
 62
     2
 10
19007.994980844
 20
65589.732066663651
 30
0.0
 11
21747.017757979422
 21
65589.732066663651
 31
0.0
  0
LINE
  5
11A
  8
HONTAI
 62
     2
 10
19537.706595054329
 20
65424.732066663659
 30
0.0
 11
20006.328920904401
 21
65424.732066663659
 31
0.0
  0
LINE
  5
11B
  8
HONTAI
 62
     2
 10
11247.01775797942
 20
65109.732066663659
 30
0.0
 11
18683.90217033049
 21
65109.732066663659
 31
0.0
  0
LINE
  5
11C
  8
HONTAI
 62
     2
 10
21747.017757979422
 20
65624.732066663651
 30
0.0
 11
21747.017757979422
 21
65389.732066663659
 31
0.0
  0
LINE
  5
11D
  8
CENTER
 10
20922.075277286731
 20
65164.732066663659
 30
0.0
 11
21795.00082132922
 21
65164.732066663659
 31
0.0
  0
LINE
  5
11E
  8
CENTER
 10
19864.207925849449
 20
65164.732066663659
 30
0.0
 11
20722.3380276114
 21
65164.732066663659
 31
0.0
  0
LINE
  5
11F
  8
CENTER
 10
18813.73818454225
 20
65164.732066663659
 30
0.0
 11
19671.86839731448
 21
65164.732066663659
 31
0.0
  0
LINE
  5
120
  8
SAIBU
 10
9397.6736066196736
 20
66516.171513406327
 30
0.0
 11
9397.6736066196736
 21
66353.805198446091
 31
0.0
  0
LINE
  5
121
  8
SAIBU
 10
9397.6736066196736
 20
66353.805198446091
 30
0.0
 11
9434.5515351305658
 21
66353.805198446091
 31
0.0
  0
LINE
  5
122
  8
SAIBU
 10
9434.5515351305658
 20
66353.805198446091
 30
0.0
 11
9434.5515351305658
 21
66516.171513406327
 31
0.0
  0
LINE
  5
123
  8
SAIBU
 10
9397.6736066196736
 20
66516.171513406327
 30
0.0
 11
9434.5515351305658
 21
66516.171513406342
 31
0.0
  0
LINE
  5
124
  8
SAIBU
 10
10354.876112407739
 20
66516.171513406327
 30
0.0
 11
10354.876112407739
 21
66353.805198446091
 31
0.0
  0
LINE
  5
125
  8
SAIBU
 10
10354.876112407739
 20
66353.805198446091
 30
0.0
 11
10391.754040918629
 21
66353.805198446091
 31
0.0
  0
LINE
  5
126
  8
SAIBU
 10
10391.754040918629
 20
66353.805198446091
 30
0.0
 11
10391.754040918629
 21
66516.171513406327
 31
0.0
  0
LINE
  5
127
  8
SAIBU
 10
10354.876112407739
 20
66516.171513406327
 30
0.0
 11
10391.754040918629
 21
66516.171513406342
 31
0.0
  0
LINE
  5
128
  8
SAIBU
 10
9875.4970108938596
 20
66516.171513406327
 30
0.0
 11
9912.3749394047481
 21
66516.171513406342
 31
0.0
  0
LINE
  5
129
  8
SAIBU
 10
9912.3749394047481
 20
66353.805198446091
 30
0.0
 11
9912.3749394047481
 21
66516.171513406327
 31
0.0
  0
LINE
  5
12A
  8
SAIBU
 10
9875.4970108938596
 20
66353.805198446091
 30
0.0
 11
9912.3749394047481
 21
66353.805198446091
 31
0.0
  0
LINE
  5
12B
  8
SAIBU
 10
9875.4970108938596
 20
66516.171513406327
 30
0.0
 11
9875.4970108938596
 21
66353.805198446091
 31
0.0
  0
LINE
  5
12C
  8
HONTAI
 10
11151.79015907846
 20
65816.8771418994
 30
0.0
 11
11790.28435734714
 21
65816.8771418994
 31
0.0
  0
LINE
  5
12D
  8
HONTAI
 10
10822.65987392902
 20
66324.732066663651
 30
0.0
 11
10822.65987392902
 21
66724.732066663651
 31
0.0
  0
LINE
  5
12E
  8
HONTAI
 10
11115.33719516362
 20
66090.610634004901
 30
0.0
 11
11545.912232127301
 21
66571.901697202411
 31
0.0
  0
POLYLINE
  5
12F
  8
HONTAI
 10
8671.9458601374936
 20
66556.651970943523
 30
0.0
 66
     1
 70
     8
  0
VERTEX
  8
HONTAI
  5
351
 10
8671.95
 20
66556.7
 30
0.000000
  70
    32
  0
VERTEX
  8
HONTAI
  5
352
 10
8670.49
 20
66556.6
 30
0.000000
  70
    32
  0
VERTEX
  8
HONTAI
  5
353
 10
8669.04
 20
66556.4
 30
0.000000
  70
    32
  0
VERTEX
  8
HONTAI
  5
354
 10
8667.59
 20
66556.0
 30
0.000000
  70
    32
  0
VERTEX
  8
HONTAI
  5
355
 10
8666.15
 20
66555.5
 30
0.000000
  70
    32
  0
VERTEX
  8
HONTAI
  5
356
 10
8664.73
 20
66554.9
 30
0.000000
  70
    32
  0
VERTEX
  8
HONTAI
  5
357
 10
8663.33
 20
66554.2
 30
0.000000
  70
    32
  0
VERTEX
  8
HONTAI
  5
358
 10
8661.94
 20
66553.3
 30
0.000000
  70
    32
  0
VERTEX
  8
HONTAI
  5
359
 10
8660.59
 20
66552.3
 30
0.000000
  70
    32
  0
VERTEX
  8
HONTAI
  5
35A
 10
8659.25
 20
66551.1
 30
0.000000
  70
    32
  0
VERTEX
  8
HONTAI
  5
35B
 10
8657.95
 20
66549.8
 30
0.000000
  70
    32
  0
VERTEX
  8
HONTAI
  5
35C
 10
8656.68
 20
66548.4
 30
0.000000
  70
    32
  0
VERTEX
  8
HONTAI
  5
35D
 10
8655.45
 20
66546.9
 30
0.000000
  70
    32
  0
VERTEX
  8
HONTAI
  5
35E
 10
8654.26
 20
66545.3
 30
0.000000
  70
    32
  0
VERTEX
  8
HONTAI
  5
35F
 10
8653.11
 20
66543.6
 30
0.000000
  70
    32
  0
VERTEX
  8
HONTAI
  5
360
 10
8652.01
 20
66541.7
 30
0.000000
  70
    32
  0
VERTEX
  8
HONTAI
  5
361
 10
8650.95
 20
66539.8
 30
0.000000
  70
    32
  0
VERTEX
  8
HONTAI
  5
362
 10
8649.95
 20
66537.7
 30
0.000000
  70
    32
  0
VERTEX
  8
HONTAI
  5
363
 10
8649.00
 20
66535.6
 30
0.000000
  70
    32
  0
VERTEX
  8
HONTAI
  5
364
 10
8648.10
 20
66533.3
 30
0.000000
  70
    32
  0
VERTEX
  8
HONTAI
  5
365
 10
8647.26
 20
66531.0
 30
0.000000
  70
    32
  0
VERTEX
  8
HONTAI
  5
366
 10
8646.48
 20
66528.6
 30
0.000000
  70
    32
  0
VERTEX
  8
HONTAI
  5
367
 10
8645.76
 20
66526.2
 30
0.000000
  70
    32
  0
VERTEX
  8
HONTAI
  5
368
 10
8645.11
 20
66523.6
 30
0.000000
  70
    32
  0
VERTEX
  8
HONTAI
  5
369
 10
8644.52
 20
66521.0
 30
0.000000
  70
    32
  0
VERTEX
  8
HONTAI
  5
36A
 10
8643.99
 20
66518.4
 30
0.000000
  70
    32
  0
VERTEX
  8
HONTAI
  5
36B
 10
8643.54
 20
66515.7
 30
0.000000
  70
    32
  0
VERTEX
  8
HONTAI
  5
36C
 10
8643.15
 20
66513.0
 30
0.000000
  70
    32
  0
VERTEX
  8
HONTAI
  5
36D
 10
8642.83
 20
66510.2
 30
0.000000
  70
    32
  0
VERTEX
  8
HONTAI
  5
36E
 10
8642.58
 20
66507.4
 30
0.000000
  70
    32
  0
VERTEX
  8
HONTAI
  5
36F
 10
8642.40
 20
66504.6
 30
0.000000
  70
    32
  0
VERTEX
  8
HONTAI
  5
370
 10
8642.29
 20
66501.8
 30
0.000000
  70
    32
  0
VERTEX
  8
HONTAI
  5
371
 10
8642.26
 20
66499.0
 30
0.000000
  70
    32
  0
VERTEX
  8
HONTAI
  5
372
 10
8642.29
 20
66496.1
 30
0.000000
  70
    32
  0
VERTEX
  8
HONTAI
  5
373
 10
8642.40
 20
66493.3
 30
0.000000
  70
    32
  0
VERTEX
  8
HONTAI
  5
374
 10
8642.58
 20
66490.5
 30
0.000000
  70
    32
  0
VERTEX
  8
HONTAI
  5
375
 10
8642.83
 20
66487.7
 30
0.000000
  70
    32
  0
VERTEX
  8
HONTAI
  5
376
 10
8643.15
 20
66485.0
 30
0.000000
  70
    32
  0
VERTEX
  8
HONTAI
  5
377
 10
8643.54
 20
66482.2
 30
0.000000
  70
    32
  0
VERTEX
  8
HONTAI
  5
378
 10
8643.99
 20
66479.5
 30
0.000000
  70
    32
  0
VERTEX
  8
HONTAI
  5
379
 10
8644.52
 20
66476.9
 30
0.000000
  70
    32
  0
VERTEX
  8
HONTAI
  5
37A
 10
8645.11
 20
66474.3
 30
0.000000
  70
    32
  0
VERTEX
  8
HONTAI
  5
37B
 10
8645.76
 20
66471.8
 30
0.000000
  70
    32
  0
VERTEX
  8
HONTAI
  5
37C
 10
8646.48
 20
66469.3
 30
0.000000
  70
    32
  0
VERTEX
  8
HONTAI
  5
37D
 10
8647.26
 20
66466.9
 30
0.000000
  70
    32
  0
VERTEX
  8
HONTAI
  5
37E
 10
8648.10
 20
66464.6
 30
0.000000
  70
    32
  0
VERTEX
  8
HONTAI
  5
37F
 10
8649.00
 20
66462.4
 30
0.000000
  70
    32
  0
VERTEX
  8
HONTAI
  5
380
 10
8649.95
 20
66460.2
 30
0.000000
  70
    32
  0
VERTEX
  8
HONTAI
  5
381
 10
8650.95
 20
66458.2
 30
0.000000
  70
    32
  0
VERTEX
  8
HONTAI
  5
382
 10
8652.01
 20
66456.2
 30
0.000000
  70
    32
  0
VERTEX
  8
HONTAI
  5
383
 10
8653.11
 20
66454.4
 30
0.000000
  70
    32
  0
VERTEX
  8
HONTAI
  5
384
 10
8654.26
 20
66452.7
 30
0.000000
  70
    32
  0
VERTEX
  8
HONTAI
  5
385
 10
8655.45
 20
66451.0
 30
0.000000
  70
    32
  0
VERTEX
  8
HONTAI
  5
386
 10
8656.68
 20
66449.5
 30
0.000000
  70
    32
  0
VERTEX
  8
HONTAI
  5
387
 10
8657.95
 20
66448.1
 30
0.000000
  70
    32
  0
VERTEX
  8
HONTAI
  5
388
 10
8659.25
 20
66446.8
 30
0.000000
  70
    32
  0
VERTEX
  8
HONTAI
  5
389
 10
8660.59
 20
66445.7
 30
0.000000
  70
    32
  0
VERTEX
  8
HONTAI
  5
38A
 10
8661.94
 20
66444.7
 30
0.000000
  70
    32
  0
VERTEX
  8
HONTAI
  5
38B
 10
8663.33
 20
66443.8
 30
0.000000
  70
    32
  0
VERTEX
  8
HONTAI
  5
38C
 10
8664.73
 20
66443.0
 30
0.000000
  70
    32
  0
VERTEX
  8
HONTAI
  5
38D
 10
8666.15
 20
66442.4
 30
0.000000
  70
    32
  0
VERTEX
  8
HONTAI
  5
38E
 10
8667.59
 20
66441.9
 30
0.000000
  70
    32
  0
VERTEX
  8
HONTAI
  5
38F
 10
8669.04
 20
66441.6
 30
0.000000
  70
    32
  0
VERTEX
  8
HONTAI
  5
390
 10
8670.49
 20
66441.4
 30
0.000000
  70
    32
  0
VERTEX
  8
HONTAI
  5
391
 10
8671.95
 20
66441.3
 30
0.000000
  70
    32
  0
VERTEX
  8
HONTAI
  5
392
 10
8673.40
 20
66441.4
 30
0.000000
  70
    32
  0
VERTEX
  8
HONTAI
  5
393
 10
8674.86
 20
66441.6
 30
0.000000
  70
    32
  0
VERTEX
  8
HONTAI
  5
394
 10
8676.30
 20
66441.9
 30
0.000000
  70
    32
  0
VERTEX
  8
HONTAI
  5
395
 10
8677.74
 20
66442.4
 30
0.000000
  70
    32
  0
VERTEX
  8
HONTAI
  5
396
 10
8679.16
 20
66443.0
 30
0.000000
  70
    32
  0
VERTEX
  8
HONTAI
  5
397
 10
8680.56
 20
66443.8
 30
0.000000
  70
    32
  0
VERTEX
  8
HONTAI
  5
398
 10
8681.95
 20
66444.7
 30
0.000000
  70
    32
  0
VERTEX
  8
HONTAI
  5
399
 10
8683.31
 20
66445.7
 30
0.000000
  70
    32
  0
VERTEX
  8
HONTAI
  5
39A
 10
8684.64
 20
66446.8
 30
0.000000
  70
    32
  0
VERTEX
  8
HONTAI
  5
39B
 10
8685.94
 20
66448.1
 30
0.000000
  70
    32
  0
VERTEX
  8
HONTAI
  5
39C
 10
8687.21
 20
66449.5
 30
0.000000
  70
    32
  0
VERTEX
  8
HONTAI
  5
39D
 10
8688.44
 20
66451.0
 30
0.000000
  70
    32
  0
VERTEX
  8
HONTAI
  5
39E
 10
8689.63
 20
66452.7
 30
0.000000
  70
    32
  0
VERTEX
  8
HONTAI
  5
39F
 10
8690.78
 20
66454.4
 30
0.000000
  70
    32
  0
VERTEX
  8
HONTAI
  5
3A0
 10
8691.88
 20
66456.2
 30
0.000000
  70
    32
  0
VERTEX
  8
HONTAI
  5
3A1
 10
8692.94
 20
66458.2
 30
0.000000
  70
    32
  0
VERTEX
  8
HONTAI
  5
3A2
 10
8693.94
 20
66460.2
 30
0.000000
  70
    32
  0
VERTEX
  8
HONTAI
  5
3A3
 10
8694.89
 20
66462.4
 30
0.000000
  70
    32
  0
VERTEX
  8
HONTAI
  5
3A4
 10
8695.79
 20
66464.6
 30
0.000000
  70
    32
  0
VERTEX
  8
HONTAI
  5
3A5
 10
8696.63
 20
66466.9
 30
0.000000
  70
    32
  0
VERTEX
  8
HONTAI
  5
3A6
 10
8697.41
 20
66469.3
 30
0.000000
  70
    32
  0
VERTEX
  8
HONTAI
  5
3A7
 10
8698.13
 20
66471.8
 30
0.000000
  70
    32
  0
VERTEX
  8
HONTAI
  5
3A8
 10
8698.78
 20
66474.3
 30
0.000000
  70
    32
  0
VERTEX
  8
HONTAI
  5
3A9
 10
8699.37
 20
66476.9
 30
0.000000
  70
    32
  0
VERTEX
  8
HONTAI
  5
3AA
 10
8699.90
 20
66479.5
 30
0.000000
  70
    32
  0
VERTEX
  8
HONTAI
  5
3AB
 10
8700.35
 20
66482.2
 30
0.000000
  70
    32
  0
VERTEX
  8
HONTAI
  5
3AC
 10
8700.74
 20
66485.0
 30
0.000000
  70
    32
  0
VERTEX
  8
HONTAI
  5
3AD
 10
8701.06
 20
66487.7
 30
0.000000
  70
    32
  0
VERTEX
  8
HONTAI
  5
3AE
 10
8701.31
 20
66490.5
 30
0.000000
  70
    32
  0
VERTEX
  8
HONTAI
  5
3AF
 10
8701.49
 20
66493.3
 30
0.000000
  70
    32
  0
VERTEX
  8
HONTAI
  5
3B0
 10
8701.60
 20
66496.1
 30
0.000000
  70
    32
  0
VERTEX
  8
HONTAI
  5
3B1
 10
8701.63
 20
66499.0
 30
0.000000
  70
    32
  0
VERTEX
  8
HONTAI
  5
3B2
 10
8701.60
 20
66501.8
 30
0.000000
  70
    32
  0
VERTEX
  8
HONTAI
  5
3B3
 10
8701.49
 20
66504.6
 30
0.000000
  70
    32
  0
VERTEX
  8
HONTAI
  5
3B4
 10
8701.31
 20
66507.4
 30
0.000000
  70
    32
  0
VERTEX
  8
HONTAI
  5
3B5
 10
8701.06
 20
66510.2
 30
0.000000
  70
    32
  0
VERTEX
  8
HONTAI
  5
3B6
 10
8700.74
 20
66513.0
 30
0.000000
  70
    32
  0
VERTEX
  8
HONTAI
  5
3B7
 10
8700.35
 20
66515.7
 30
0.000000
  70
    32
  0
VERTEX
  8
HONTAI
  5
3B8
 10
8699.90
 20
66518.4
 30
0.000000
  70
    32
  0
VERTEX
  8
HONTAI
  5
3B9
 10
8699.37
 20
66521.0
 30
0.000000
  70
    32
  0
VERTEX
  8
HONTAI
  5
3BA
 10
8698.78
 20
66523.6
 30
0.000000
  70
    32
  0
VERTEX
  8
HONTAI
  5
3BB
 10
8698.13
 20
66526.2
 30
0.000000
  70
    32
  0
VERTEX
  8
HONTAI
  5
3BC
 10
8697.41
 20
66528.6
 30
0.000000
  70
    32
  0
VERTEX
  8
HONTAI
  5
3BD
 10
8696.63
 20
66531.0
 30
0.000000
  70
    32
  0
VERTEX
  8
HONTAI
  5
3BE
 10
8695.79
 20
66533.3
 30
0.000000
  70
    32
  0
VERTEX
  8
HONTAI
  5
3BF
 10
8694.89
 20
66535.6
 30
0.000000
  70
    32
  0
VERTEX
  8
HONTAI
  5
3C0
 10
8693.94
 20
66537.7
 30
0.000000
  70
    32
  0
VERTEX
  8
HONTAI
  5
3C1
 10
8692.94
 20
66539.8
 30
0.000000
  70
    32
  0
VERTEX
  8
HONTAI
  5
3C2
 10
8691.88
 20
66541.7
 30
0.000000
  70
    32
  0
VERTEX
  8
HONTAI
  5
3C3
 10
8690.78
 20
66543.6
 30
0.000000
  70
    32
  0
VERTEX
  8
HONTAI
  5
3C4
 10
8689.63
 20
66545.3
 30
0.000000
  70
    32
  0
VERTEX
  8
HONTAI
  5
3C5
 10
8688.44
 20
66546.9
 30
0.000000
  70
    32
  0
VERTEX
  8
HONTAI
  5
3C6
 10
8687.21
 20
66548.4
 30
0.000000
  70
    32
  0
VERTEX
  8
HONTAI
  5
3C7
 10
8685.94
 20
66549.8
 30
0.000000
  70
    32
  0
VERTEX
  8
HONTAI
  5
3C8
 10
8684.64
 20
66551.1
 30
0.000000
  70
    32
  0
VERTEX
  8
HONTAI
  5
3C9
 10
8683.31
 20
66552.3
 30
0.000000
  70
    32
  0
VERTEX
  8
HONTAI
  5
3CA
 10
8681.95
 20
66553.3
 30
0.000000
  70
    32
  0
VERTEX
  8
HONTAI
  5
3CB
 10
8680.56
 20
66554.2
 30
0.000000
  70
    32
  0
VERTEX
  8
HONTAI
  5
3CC
 10
8679.16
 20
66554.9
 30
0.000000
  70
    32
  0
VERTEX
  8
HONTAI
  5
3CD
 10
8677.74
 20
66555.5
 30
0.000000
  70
    32
  0
VERTEX
  8
HONTAI
  5
3CE
 10
8676.30
 20
66556.0
 30
0.000000
  70
    32
  0
VERTEX
  8
HONTAI
  5
3CF
 10
8674.86
 20
66556.4
 30
0.000000
  70
    32
  0
VERTEX
  8
HONTAI
  5
3D0
 10
8673.40
 20
66556.6
 30
0.000000
  70
    32
  0
VERTEX
  8
HONTAI
  5
3D1
 10
8671.95
 20
66556.7
 30
0.000000
  70
    32
  0
SEQEND
  8
HONTAI
  5
3D2
  0
LINE
  5
130
  8
HONTAI
 10
8447.0177579793672
 20
66501.566943788624
 30
0.0
 11
8447.0177579793672
 21
66378.63525279671
 31
0.0
  0
LINE
  5
131
  8
HONTAI
 10
8447.0177579793672
 20
66378.63525279671
 30
0.0
 11
8587.0177579793672
 21
66420.611921725533
 31
0.0
  0
LINE
  5
132
  8
HONTAI
 10
8447.0177579793672
 20
66501.566943788624
 30
0.0
 11
8587.0177579793672
 21
66459.590274859802
 31
0.0
  0
LINE
  5
133
  8
HONTAI
 10
8496.7925805946888
 20
66551.039526106324
 30
0.0
 11
8587.0177579793672
 21
66551.039526106324
 31
0.0
  0
LINE
  5
134
  8
HONTAI
 10
8496.7925805946888
 20
66623.538328711453
 30
0.0
 11
8496.7925805946888
 21
66551.039526106324
 31
0.0
  0
LINE
  5
135
  8
HONTAI
 10
8587.0177579793672
 20
66623.538328711453
 30
0.0
 11
8496.7925805946888
 21
66623.538328711453
 31
0.0
  0
ARC
  5
136
  8
HONTAI
 10
10822.65987392902
 20
66024.732066663651
 30
0.0
 40
300.0
 50
7.3118961466193424
 51
90.0
  0
ARC
  5
137
  8
HONTAI
 10
11145.863083242
 20
66124.732066663651
 30
0.0
 40
600.0
 50
7.3118961466193424
 51
90.0
  0
LINE
  5
138
  8
HONTAI
 10
11247.01775797936
 20
65074.732066663651
 30
0.0
 11
11120.22028568192
 21
66062.913231620099
 31
0.0
  0
LINE
  5
139
  8
HONTAI
 10
11847.017757979371
 20
65374.732066663659
 30
0.0
 11
11740.983906747861
 21
66201.094396576533
 31
0.0
  0
LINE
  5
13A
  8
HONTAI
 10
8587.0177579793672
 20
66623.538328711453
 30
0.0
 11
9092.8999287847255
 21
66724.732066663651
 31
0.0
  0
ARC
  5
13B
  8
SAIBU
 10
8662.9505175467057
 20
66131.877050977273
 30
0.0
 40
178.4615384615384
 50
61.683461580158671
 51
90.0
  0
LINE
  5
13C
  8
SAIBU
 10
8792.8525987611192
 20
66221.107820208024
 30
0.0
 11
8792.8525987611192
 21
66176.655143586744
 31
0.0
  0
LINE
  5
13D
  8
SAIBU
 10
8747.6023811173782
 20
66221.107820208024
 30
0.0
 11
8747.6023811173782
 21
66288.98396586033
 31
0.0
  0
LINE
  5
13E
  8
HONTAI
 62
     2
 10
8587.0177579793672
 20
66324.732066663651
 30
0.0
 11
8587.0177579793672
 21
66623.538328711453
 31
0.0
  0
LINE
  5
13F
  8
HONTAI
 62
     2
 10
9092.8999287847855
 20
66724.732066663651
 30
0.0
 11
11145.863083242
 21
66724.732066663651
 31
0.0
  0
LINE
  5
140
  8
HONTAI
 62
     2
 10
8587.0177579794254
 20
66324.732066663651
 30
0.0
 11
10822.65987392902
 21
66324.732066663651
 31
0.0
  0
LINE
  5
141
  8
HONTAI
 62
     2
 10
22017.017757979429
 20
65624.732066663651
 30
0.0
 11
22017.017757979429
 21
65244.732066663659
 31
0.0
  0
LINE
  5
142
  8
HONTAI
 62
     2
 10
22017.017757979429
 20
65244.732066663659
 30
0.0
 11
22117.017757979371
 21
65244.732066663659
 31
0.0
  0
LINE
  5
143
  8
HONTAI
 62
     2
 10
22117.017757979371
 20
65624.732066663651
 30
0.0
 11
22117.017757979371
 21
65244.732066663659
 31
0.0
  0
LINE
  5
144
  8
HONTAI
 62
     2
 10
21665.569166703299
 20
65389.732066663659
 30
0.0
 11
22017.017757979429
 21
65389.732066663651
 31
0.0
  0
LINE
  5
145
  8
HONTAI
 62
     2
 10
20615.569166703299
 20
65389.732066663659
 30
0.0
 11
21028.466349255439
 21
65389.732066663659
 31
0.0
  0
LINE
  5
146
  8
HONTAI
 62
     2
 10
19565.569166703292
 20
65389.732066663659
 30
0.0
 11
19978.466349255439
 21
65389.732066663659
 31
0.0
  0
ARC
  5
147
  8
HONTAI
 10
19007.994980844
 20
65074.732066663651
 30
0.0
 40
290.97722286463249
 50
111.48125191332031
 51
180.0
  0
ARC
  5
148
  8
HONTAI
 10
19007.994980844
 20
65074.732066663651
 30
0.0
 40
549.99999999999272
 50
90.0
 51
146.9442688485546
  0
CIRCLE
  5
149
  8
SAIBU
 10
21347.017757979371
 20
65164.732066663659
 30
0.0
 40
220.0
  0
CIRCLE
  5
14A
  8
SAIBU
 10
20297.017757979371
 20
65164.732066663659
 30
0.0
 40
220.0
  0
CIRCLE
  5
14B
  8
SAIBU
 10
19247.01775797936
 20
65164.732066663659
 30
0.0
 40
220.0
  0
CIRCLE
  5
14C
  8
HONTAI
 62
     2
 10
21347.017757979371
 20
65164.732066663659
 30
0.0
 40
390.0
  0
CIRCLE
  5
14D
  8
HONTAI
 62
     2
 10
20297.017757979371
 20
65164.732066663659
 30
0.0
 40
390.0
  0
CIRCLE
  5
14E
  8
HONTAI
 62
     2
 10
19247.01775797936
 20
65164.732066663659
 30
0.0
 40
390.0
  0
LINE
  5
14F
  8
CENTER
 10
21347.017757979371
 20
65592.765147721875
 30
0.0
 11
21347.017757979371
 21
64720.548776447707
 31
0.0
  0
LINE
  5
150
  8
CENTER
 10
20297.017757979422
 20
65592.765147721875
 30
0.0
 11
20297.017757979371
 21
64720.548776447707
 31
0.0
  0
LINE
  5
151
  8
CENTER
 10
19247.017757979422
 20
65592.765147721875
 30
0.0
 11
19247.01775797936
 21
64720.548776447707
 31
0.0
  0
LINE
  5
152
  8
HONTAI
 10
5908.838618317066
 20
68204.256449389824
 30
0.0
 11
5680.2258373433433
 21
68174.039535716525
 31
0.0
  0
ARC
  5
153
  8
HONTAI
 10
5719.5860461385164
 20
67876.251121927809
 30
0.0
 40
300.37837043168918
 50
97.529429914143478
 51
150.1260962700247
  0
LINE
  5
154
  8
HONTAI
 10
4517.9627894718724
 20
67901.79968668113
 30
0.0
 11
4490.822861161927
 21
67881.984704852977
 31
0.0
  0
LINE
  5
155
  8
HONTAI
 10
5068.3113914551504
 20
67924.953402609302
 30
0.0
 11
5097.3626472498581
 21
67896.945986870618
 31
0.0
  0
ARC
  5
156
  8
HONTAI
 10
4861.9196714566497
 20
66278.459825108075
 30
0.0
 40
1659.378993128666
 50
82.855111016548008
 51
101.96302912683829
  0
LINE
  5
157
  8
HONTAI
 10
3965.5115396603069
 20
67574.232076327986
 30
0.0
 11
4273.241018284607
 21
67542.509683382406
 31
0.0
  0
LINE
  5
158
  8
HONTAI
 10
3965.5115396603069
 20
67574.232076327986
 30
0.0
 11
3992.6459152812899
 21
67666.606282605935
 31
0.0
  0
LINE
  5
159
  8
HONTAI
 10
4422.3540903081002
 20
67976.261280520557
 30
0.0
 11
4328.1588602406264
 21
67647.311004514195
 31
0.0
  0
LINE
  5
15A
  8
HONTAI
 10
4422.3540903080429
 20
67976.261280520557
 30
0.0
 11
4294.7732947625054
 21
67948.30159518827
 31
0.0
  0
ARC
  5
15B
  8
HONTAI
 10
4381.5427726884664
 20
67552.370135613004
 30
0.0
 40
405.32784629354143
 50
102.36110885586091
 51
163.63016170021439
  0
ARC
  5
15C
  8
HONTAI
 10
4953.1092966626447
 20
61442.834667255782
 30
0.0
 40
6455.7231938130744
 50
83.705013786362315
 51
94.976122393657221
  0
LINE
  5
15D
  8
HONTAI
 10
5936.2894319595362
 20
67924.285320508206
 30
0.0
 11
5970.7379017796193
 21
67732.398995023308
 31
0.0
  0
LINE
  5
15E
  8
HONTAI
 10
5899.2903912973406
 20
67924.285320508206
 30
0.0
 11
5933.7388611174247
 21
67732.398995023308
 31
0.0
  0
LINE
  5
15F
  8
HONTAI
 10
5971.5265183910087
 20
67924.285320508206
 30
0.0
 11
6005.9749882110918
 21
67732.398995023308
 31
0.0
  0
LINE
  5
160
  8
HONTAI
 10
5899.2903912973406
 20
67924.285320508206
 30
0.0
 11
5899.2903912973406
 21
68001.994903306651
 31
0.0
  0
LINE
  5
161
  8
HONTAI
 10
5971.5265183910087
 20
67924.285320508206
 30
0.0
 11
5899.2903912973406
 21
67924.285320508206
 31
0.0
  0
LINE
  5
162
  8
HONTAI
 10
5971.5265183910087
 20
68001.994903306651
 30
0.0
 11
5971.5265183910087
 21
67924.285320508206
 31
0.0
  0
LINE
  5
163
  8
HONTAI
 10
5844.6729184296273
 20
67517.627140502038
 30
0.0
 11
5993.5607151750892
 21
67517.627140502038
 31
0.0
  0
LINE
  5
164
  8
HONTAI
 10
5844.6729184296273
 20
67732.398995023308
 30
0.0
 11
5844.6729184296273
 21
67517.627140502038
 31
0.0
  0
LINE
  5
165
  8
HONTAI
 10
6005.9749882110918
 20
67732.398995023308
 30
0.0
 11
5844.6729184296273
 21
67732.398995023308
 31
0.0
  0
LINE
  5
166
  8
HONTAI
 10
5433.9336568835724
 20
67929.781757838791
 30
0.0
 11
5474.8499152210143
 21
68001.994903306651
 31
0.0
  0
LINE
  5
167
  8
HONTAI
 10
5411.5138105911019
 20
67932.021914438883
 30
0.0
 11
5433.9336568835724
 21
67929.781757838791
 31
0.0
  0
LINE
  5
168
  8
HONTAI
 10
5458.7929477987063
 20
68025.867439393682
 30
0.0
 11
5411.5138105911019
 21
67932.021914438883
 31
0.0
  0
ARC
  5
169
  8
HONTAI
 10
5971.2279008960177
 20
68001.994903306651
 30
0.0
 40
23.87253608703395
 50
0.0
 51
90.0
  0
LINE
  5
16A
  8
HONTAI
 10
5458.7929477987063
 20
68025.867439393682
 30
0.0
 11
5971.2279008960177
 21
68025.867439393682
 31
0.0
  0
ARC
  5
16B
  8
HONTAI
 10
5916.0666911325816
 20
68149.570856900202
 30
0.0
 40
55.161209763457009
 50
0.0
 51
104.34832087361281
  0
LINE
  5
16C
  8
HONTAI
 10
5971.2279008960177
 20
68149.570856900202
 30
0.0
 11
5971.2279008960177
 21
68025.867439393682
 31
0.0
  0
LINE
  5
16D
  8
HONTAI
 10
5995.1004369937291
 20
68001.994903306651
 30
0.0
 11
5474.8499152210143
 21
68001.994903306651
 31
0.0
  0
LINE
  5
16E
  8
HONTAI
 10
6356.6199766166683
 20
67378.623688831576
 30
0.0
 11
6356.6199766167274
 21
66509.347451279056
 31
0.0
  0
LINE
  5
16F
  8
HONTAI
 10
6335.4792964409862
 20
67378.623688831576
 30
0.0
 11
6356.6199766166683
 21
67378.623688831576
 31
0.0
  0
LINE
  5
170
  8
HONTAI
 10
6484.794154169359
 20
66203.092118835615
 30
0.0
 11
6476.0252301149012
 21
66174.732066663651
 31
0.0
  0
LINE
  5
171
  8
HONTAI
 10
6254.6214495080931
 20
66203.092118835615
 30
0.0
 11
6263.3903735625499
 21
66174.732066663651
 31
0.0
  0
LINE
  5
172
  8
HONTAI
 10
6484.794154169359
 20
66203.092118835615
 30
0.0
 11
6254.6214495080931
 21
66203.092118835615
 31
0.0
  0
LINE
  5
173
  8
HONTAI
 10
6358.5770868162799
 20
66509.347451279056
 30
0.0
 11
6484.794154169359
 21
66203.092118835615
 31
0.0
  0
LINE
  5
174
  8
HONTAI
 10
6254.6214495080931
 20
66509.347451279027
 30
0.0
 11
6254.6214495080931
 21
66203.092118835615
 31
0.0
  0
LINE
  5
175
  8
HONTAI
 10
6189.2961573865323
 20
67507.565145074084
 30
0.0
 11
6189.2961573865323
 21
66643.875653177383
 31
0.0
  0
LINE
  5
176
  8
HONTAI
 10
6105.9476851310746
 20
67507.565145074084
 30
0.0
 11
6223.9408349024307
 21
67507.565145074084
 31
0.0
  0
LINE
  5
177
  8
HONTAI
 10
6105.9476851310746
 20
67533.067927868309
 30
0.0
 11
6223.9408349024307
 21
67533.067927868309
 31
0.0
  0
LINE
  5
178
  8
HONTAI
 10
6112.4023733639906
 20
66723.193605125183
 30
0.0
 11
6189.2961573865323
 21
66706.771143708815
 31
0.0
  0
LINE
  5
179
  8
HONTAI
 10
6112.4023733639906
 20
66766.352292549796
 30
0.0
 11
6189.2961573865323
 21
66782.774753966165
 31
0.0
  0
LINE
  5
17A
  8
HONTAI
 10
6105.9476851310746
 20
66723.193605125183
 30
0.0
 11
6105.9476851310746
 21
66182.937191822566
 31
0.0
  0
LINE
  5
17B
  8
HONTAI
 10
5993.5607151751474
 20
66723.193605125198
 30
0.0
 11
5993.5607151751474
 21
66182.937191822566
 31
0.0
  0
ARC
  5
17C
  8
HONTAI
 10
6169.2961573865332
 20
66643.875653177383
 30
0.0
 40
20.0
 50
270.0
 51
0.0
  0
ARC
  5
17D
  8
HONTAI
 10
6121.8649512160628
 20
67832.66840047951
 30
0.0
 40
20.0
 50
129.44960902165849
 51
180.0
  0
ARC
  5
17E
  8
HONTAI
 10
6169.2961573865896
 20
67871.697658338744
 30
0.0
 40
20.0
 50
0.0
 51
129.44960902165849
  0
LINE
  5
17F
  8
HONTAI
 10
6101.8649512160628
 20
67832.66840047951
 30
0.0
 11
6101.864951216121
 21
67584.495541355194
 31
0.0
  0
LINE
  5
180
  8
HONTAI
 10
6156.588170598232
 20
67887.141332506086
 30
0.0
 11
6109.1569644277042
 21
67848.112074646866
 31
0.0
  0
LINE
  5
181
  8
HONTAI
 10
6169.2961573865332
 20
66623.875653177383
 30
0.0
 11
6105.9476851310746
 21
66623.875653177383
 31
0.0
  0
LINE
  5
182
  8
HONTAI
 10
6189.2961573865896
 20
67871.697658338744
 30
0.0
 11
6189.2961573865323
 21
67533.067927868309
 31
0.0
  0
LINE
  5
183
  8
HONTAI
 10
6223.9408349024307
 20
67826.088650674836
 30
0.0
 11
6335.479296440928
 21
67826.088650674836
 31
0.0
  0
LINE
  5
184
  8
HONTAI
 10
5993.5607151751474
 20
66182.937191822566
 30
0.0
 11
6006.4840234154544
 21
66103.731981337973
 31
0.0
  0
LINE
  5
185
  8
HONTAI
 10
6105.9476851310746
 20
66182.937191822566
 30
0.0
 11
6112.6238398336282
 21
66140.680193562555
 31
0.0
  0
LINE
  5
186
  8
HONTAI
 10
6006.4840234154544
 20
66103.731981337973
 30
0.0
 11
6089.815903179202
 21
65864.347451279042
 31
0.0
  0
LINE
  5
187
  8
HONTAI
 10
6006.4840234154544
 20
66103.731981337973
 30
0.0
 11
6112.6238398336282
 21
66140.680193562555
 31
0.0
  0
LINE
  5
188
  8
HONTAI
 10
6112.6238398336282
 20
66140.680193562555
 30
0.0
 11
6208.8177202362858
 21
65864.347451279042
 31
0.0
  0
LINE
  5
189
  8
HONTAI
 10
5993.5607151751474
 20
66182.937191822566
 30
0.0
 11
6105.9476851310746
 21
66182.937191822566
 31
0.0
  0
LINE
  5
18A
  8
HONTAI
 10
6105.9476851310746
 20
66723.193605125198
 30
0.0
 11
6112.4023733639906
 21
66723.193605125198
 31
0.0
  0
LINE
  5
18B
  8
HONTAI
 10
6105.9476851310746
 20
66766.352292549796
 30
0.0
 11
6112.4023733639906
 21
66766.352292549796
 31
0.0
  0
LINE
  5
18C
  8
HONTAI
 10
6058.9878083314097
 20
68044.52919528741
 30
0.0
 11
6058.9878083314097
 21
68056.500899436447
 31
0.0
  0
LINE
  5
18D
  8
HONTAI
 10
6040.5205919747532
 20
68056.500899436447
 30
0.0
 11
6058.9878083314097
 21
68056.500899436447
 31
0.0
  0
LINE
  5
18E
  8
HONTAI
 10
6040.5205919747532
 20
68044.52919528741
 30
0.0
 11
6040.5205919747532
 21
68056.500899436447
 31
0.0
  0
LINE
  5
18F
  8
HONTAI
 10
6093.533412095072
 20
68022.411365935463
 30
0.0
 11
6086.8817906513868
 21
68044.52919528741
 31
0.0
  0
LINE
  5
190
  8
HONTAI
 10
6012.626609654777
 20
68044.52919528741
 30
0.0
 11
6086.881790651445
 21
68044.52919528741
 31
0.0
  0
LINE
  5
191
  8
HONTAI
 10
6005.9749882110918
 20
68022.411365935463
 30
0.0
 11
6012.626609654777
 21
68044.52919528741
 31
0.0
  0
LINE
  5
192
  8
HONTAI
 10
6005.9749882110918
 20
68022.411365935463
 30
0.0
 11
6093.533412095072
 21
68022.411365935463
 31
0.0
  0
LINE
  5
193
  8
HONTAI
 10
6093.533412095072
 20
67688.719906200364
 30
0.0
 11
6093.533412095072
 21
68022.411365935463
 31
0.0
  0
LINE
  5
194
  8
HONTAI
 10
6005.9749882110918
 20
67688.719906200364
 30
0.0
 11
6005.9749882110918
 21
68022.411365935463
 31
0.0
  0
LINE
  5
195
  8
HONTAI
 10
6093.533412095072
 20
67688.719906200364
 30
0.0
 11
6105.9476851310174
 21
67533.422103069694
 31
0.0
  0
LINE
  5
196
  8
HONTAI
 10
6005.9749882110918
 20
67688.719906200364
 30
0.0
 11
5993.5607151751474
 21
67533.422103069694
 31
0.0
  0
LINE
  5
197
  8
HONTAI
 10
6005.9749882110918
 20
67688.719906200364
 30
0.0
 11
6093.533412095072
 21
67688.719906200364
 31
0.0
  0
LINE
  5
198
  8
HONTAI
 10
6105.9476851310746
 20
67533.422103069694
 30
0.0
 11
6105.9476851310746
 21
66766.352292549796
 31
0.0
  0
LINE
  5
199
  8
HONTAI
 10
5993.5607151751474
 20
67533.422103069839
 30
0.0
 11
5993.5607151751474
 21
66766.352292549796
 31
0.0
  0
LINE
  5
19A
  8
HONTAI
 10
6052.095627738483
 20
65482.521874698308
 30
0.0
 11
6052.095627738483
 21
65540.885912817495
 31
0.0
  0
LINE
  5
19B
  8
HONTAI
 10
6156.6778020730999
 20
65482.521874698308
 30
0.0
 11
6052.095627738483
 21
65482.521874698308
 31
0.0
  0
LINE
  5
19C
  8
HONTAI
 10
6156.6778020730999
 20
65451.328623310481
 30
0.0
 11
6156.6778020730999
 21
65540.885912817495
 31
0.0
  0
LINE
  5
19D
  8
HONTAI
 10
6197.1982815630909
 20
65403.89347547642
 30
0.0
 11
6156.6778020730999
 21
65451.328623310481
 31
0.0
  0
ARC
  5
19E
  8
HONTAI
 10
6329.2961427927657
 20
65236.626525878033
 30
0.0
 40
213.1386341548787
 50
119.6238745815506
 51
154.3277997115847
  0
ARC
  5
19F
  8
HONTAI
 10
6329.2961427927657
 20
65236.626525878033
 30
0.0
 40
213.1386341548787
 50
25.672200288415269
 51
106.5575620367246
  0
LINE
  5
1A0
  8
HONTAI
 10
7166.4884573123127
 20
65753.717473287281
 30
0.0
 11
7166.4884573123127
 21
65864.347451279027
 31
0.0
  0
LINE
  5
1A1
  8
HONTAI
 10
7081.1301108178159
 20
65753.717473287281
 30
0.0
 11
7081.1301108178159
 21
65864.347451279027
 31
0.0
  0
LINE
  5
1A2
  8
HONTAI
 10
7081.1301108178159
 20
65753.717473287281
 30
0.0
 11
6945.1817657337806
 21
65753.717473287281
 31
0.0
  0
CIRCLE
  5
1A3
  8
HONTAI
 10
7123.8092840650652
 20
65699.285605857644
 30
0.0
 40
69.168923809360422
  0
ARC
  5
1A4
  8
HONTAI
 10
7029.385766082064
 20
65630.116682048276
 30
0.0
 40
29.93239930399432
 50
0.0
 51
90.0
  0
ARC
  5
1A5
  8
HONTAI
 10
6993.7045277555881
 20
65660.049081352263
 30
0.0
 40
31.19566748594298
 50
0.0
 51
90.0
  0
ARC
  5
1A6
  8
HONTAI
 10
6960.2532627525216
 20
65691.244748838217
 30
0.0
 40
31.195791388399812
 50
0.0
 51
90.0
  0
LINE
  5
1A7
  8
HONTAI
 10
7029.385766082064
 20
65660.049081352263
 30
0.0
 11
6268.5562195178063
 21
65660.049081352263
 31
0.0
  0
LINE
  5
1A8
  8
HONTAI
 10
6993.7045277555881
 20
65691.244748838217
 30
0.0
 11
6268.5562195178063
 21
65691.244748838217
 31
0.0
  0
LINE
  5
1A9
  8
HONTAI
 10
6960.2532627525216
 20
65722.440540226613
 30
0.0
 11
6268.5562195178063
 21
65722.440540226613
 31
0.0
  0
LINE
  5
1AA
  8
HONTAI
 10
6902.2711810906467
 20
65842.767119902404
 30
0.0
 11
6960.2532627525216
 21
65722.440540226613
 31
0.0
  0
LINE
  5
1AB
  8
HONTAI
 10
6268.5562195178063
 20
65842.767119902404
 30
0.0
 11
6902.2711810906467
 21
65842.767119902404
 31
0.0
  0
LINE
  5
1AC
  8
HONTAI
 10
5885.2209558633922
 20
65540.885912817495
 30
0.0
 11
5885.2209558633922
 21
65328.962835894417
 31
0.0
  0
LINE
  5
1AD
  8
HONTAI
 10
5851.9591291485413
 20
65408.370044400457
 30
0.0
 11
5870.0166652344924
 21
65408.370044400457
 31
0.0
  0
LINE
  5
1AE
  8
HONTAI
 10
5791.8808004358143
 20
65462.566526345807
 30
0.0
 11
5791.503308564279
 21
65462.566526345807
 31
0.0
  0
ARC
  5
1AF
  8
HONTAI
 10
6046.5723010151123
 20
65505.22107696384
 30
0.0
 40
258.6109077324104
 50
189.16073456622721
 51
189.49358442411179
  0
LINE
  5
1B0
  8
HONTAI
 10
5885.2209558633922
 20
65239.732066663688
 30
0.0
 11
5562.2810170057637
 21
66010.698714999395
 31
0.0
  0
LINE
  5
1B1
  8
HONTAI
 10
5885.2209558633331
 20
65328.962835894417
 30
0.0
 11
5619.4981311541924
 21
65963.332918074302
 31
0.0
  0
CIRCLE
  5
1B2
  8
HONTAI
 10
6130.093141654419
 20
65753.90844308419
 30
0.0
 40
93.847693247989795
  0
LINE
  5
1B3
  8
HONTAI
 10
7280.042057407758
 20
65864.347451279056
 30
0.0
 11
7818.6975914736686
 21
65864.347451279042
 31
0.0
  0
LINE
  5
1B4
  8
HONTAI
 10
7235.4266727924414
 20
65540.885912817495
 30
0.0
 11
7235.4266727924414
 21
65328.962835894417
 31
0.0
  0
LINE
  5
1B5
  8
HONTAI
 10
7280.0420574078162
 20
65540.885912817495
 30
0.0
 11
7280.0420574078162
 21
65328.962835894417
 31
0.0
  0
LINE
  5
1B6
  8
HONTAI
 10
7537.970976042533
 20
65540.885912817495
 30
0.0
 11
7537.970976042533
 21
65328.962835894417
 31
0.0
  0
LINE
  5
1B7
  8
HONTAI
 10
7493.3555914271574
 20
65540.885912817495
 30
0.0
 11
7493.3555914271574
 21
65328.962835894417
 31
0.0
  0
LINE
  5
1B8
  8
HONTAI
 10
7280.0420574078162
 20
66107.808989740573
 30
0.0
 11
7280.0420574078162
 21
65630.116682048276
 31
0.0
  0
LINE
  5
1B9
  8
HONTAI
 10
7235.4266727924987
 20
66107.808989740573
 30
0.0
 11
7235.4266727924414
 21
65630.116682048276
 31
0.0
  0
LINE
  5
1BA
  8
HONTAI
 10
6994.2973076488406
 20
65540.885912817495
 30
0.0
 11
6994.2973076488406
 21
65328.962835894417
 31
0.0
  0
LINE
  5
1BB
  8
HONTAI
 10
6949.6819230334659
 20
65540.885912817495
 30
0.0
 11
6949.6819230334659
 21
65328.962835894417
 31
0.0
  0
LINE
  5
1BC
  8
HONTAI
 10
6733.8396871855657
 20
65540.885912817495
 30
0.0
 11
6733.8396871855657
 21
65328.962835894417
 31
0.0
  0
LINE
  5
1BD
  8
HONTAI
 10
6689.22430257019
 20
65540.885912817495
 30
0.0
 11
6689.22430257019
 21
65328.962835894417
 31
0.0
  0
LINE
  5
1BE
  8
HONTAI
 10
5885.2209558633331
 20
65328.962835894417
 30
0.0
 11
5885.2209558633922
 21
65239.732066663702
 31
0.0
  0
LINE
  5
1BF
  8
HONTAI
 10
5885.2209558633331
 20
65630.116682048305
 30
0.0
 11
5885.2209558633331
 21
65540.885912817495
 31
0.0
  0
LINE
  5
1C0
  8
HONTAI
 10
5885.2209558633922
 20
65239.732066663688
 30
0.0
 11
7785.4792964409289
 21
65239.732066663688
 31
0.0
  0
LINE
  5
1C1
  8
HONTAI
 10
9223.2964178061502
 20
65759.601594338921
 30
0.0
 11
9298.9643658586701
 21
65504.8659094096
 31
0.0
  0
LINE
  5
1C2
  8
HONTAI
 10
9252.3326441937552
 20
65754.349177764001
 30
0.0
 11
9311.4041368256148
 21
65555.485358635342
 31
0.0
  0
LINE
  5
1C3
  8
HONTAI
 10
9091.7028717649227
 20
65754.349177764001
 30
0.0
 11
9032.6313791331777
 21
65555.485358635284
 31
0.0
  0
LINE
  5
1C4
  8
HONTAI
 10
9120.7390981525805
 20
65759.601594338921
 30
0.0
 11
9045.0711501000624
 21
65504.865909409578
 31
0.0
  0
ARC
  5
1C5
  8
HONTAI
 10
9172.0177579793653
 20
65393.239956892328
 30
0.0
 40
369.93289978883331
 50
56.54621612634601
 51
123.4537838736539
  0
LINE
  5
1C6
  8
HONTAI
 10
10618.690914816711
 20
65583.831749509176
 30
0.0
 11
10589.164339169831
 21
65583.831749509176
 31
0.0
  0
LINE
  5
1C7
  8
HONTAI
 10
10634.483773098351
 20
65345.199221941482
 30
0.0
 11
10634.483773098351
 21
65689.578229032195
 31
0.0
  0
LINE
  5
1C8
  8
HONTAI
 10
10618.690914816711
 20
65345.199221941482
 30
0.0
 11
10634.483773098351
 21
65345.199221941482
 31
0.0
  0
LINE
  5
1C9
  8
HONTAI
 10
10618.690914816711
 20
65362.985668858339
 30
0.0
 11
10618.690914816711
 21
65345.199221941482
 31
0.0
  0
LINE
  5
1CA
  8
HONTAI
 10
10618.690914816711
 20
65652.694091107187
 30
0.0
 11
10618.690914816711
 21
65362.985668858339
 31
0.0
  0
LINE
  5
1CB
  8
HONTAI
 10
10708.309455549261
 20
65715.183077135123
 30
0.0
 11
10708.309455549261
 21
65551.851128299721
 31
0.0
  0
LINE
  5
1CC
  8
HONTAI
 10
10708.309455549261
 20
65551.851128299721
 30
0.0
 11
10727.01775797936
 21
65551.851128299721
 31
0.0
  0
LINE
  5
1CD
  8
HONTAI
 10
10727.01775797936
 20
65715.183077135123
 30
0.0
 11
10727.01775797936
 21
65551.851128299721
 31
0.0
  0
LINE
  5
1CE
  8
HONTAI
 10
10708.309455549261
 20
65715.183077135123
 30
0.0
 11
10727.01775797936
 21
65715.183077135123
 31
0.0
  0
LINE
  5
1CF
  8
HONTAI
 10
10708.309455549261
 20
65551.851128299721
 30
0.0
 11
10634.483773098291
 21
65578.196024865727
 31
0.0
  0
LINE
  5
1D0
  8
HONTAI
 10
10708.309455549261
 20
65715.183077135123
 30
0.0
 11
10634.13220996872
 21
65688.712724305413
 31
0.0
  0
ARC
  5
1D1
  8
HONTAI
 10
10587.98578518463
 20
65707.961295152287
 30
0.0
 40
50.0
 50
336.7914683835703
 51
65.070252198551756
  0
LINE
  5
1D2
  8
HONTAI
 10
10633.93961864602
 20
65688.257356708244
 30
0.0
 11
10574.418701729301
 21
65549.44174320926
 31
0.0
  0
LINE
  5
1D3
  8
HONTAI
 10
10550.4320510916
 20
65780.554275099188
 30
0.0
 11
10609.061119744811
 21
65753.302559726377
 31
0.0
  0
LINE
  5
1D4
  8
HONTAI
 10
10519.515482468971
 20
65788.945870755517
 30
0.0
 11
10550.4320510916
 21
65788.945870755517
 31
0.0
  0
LINE
  5
1D5
  8
HONTAI
 10
10519.515482468971
 20
65812.655351196212
 30
0.0
 11
10550.4320510916
 21
65812.655351196212
 31
0.0
  0
LINE
  5
1D6
  8
HONTAI
 10
10439.952540533641
 20
65891.425743673724
 30
0.0
 11
10519.515482468971
 21
65891.425743673724
 31
0.0
  0
LINE
  5
1D7
  8
HONTAI
 10
10519.515482468971
 20
65907.936259660943
 30
0.0
 11
10519.515482468971
 21
65689.075554378389
 31
0.0
  0
LINE
  5
1D8
  8
HONTAI
 10
10550.4320510916
 20
65907.936259660943
 30
0.0
 11
10550.4320510916
 21
65610.446316180532
 31
0.0
  0
LINE
  5
1D9
  8
HONTAI
 10
10433.460699683959
 20
65907.936259660943
 30
0.0
 11
10550.4320510916
 21
65907.936259660943
 31
0.0
  0
LINE
  5
1DA
  8
HONTAI
 10
10565.40165351159
 20
65469.972785053898
 30
0.0
 11
10605.665443456581
 21
65469.972785053898
 31
0.0
  0
CIRCLE
  5
1DB
  8
HONTAI
 62
     2
 10
4997.0177579793672
 20
65384.732066663673
 30
0.0
 40
610.0
  0
CIRCLE
  5
1DC
  8
HONTAI
 62
     2
 10
8447.0177579793672
 20
65384.732066663659
 30
0.0
 40
610.0
  0
CIRCLE
  5
1DD
  8
HONTAI
 62
     2
 10
9897.0177579793672
 20
65384.732066663673
 30
0.0
 40
610.0
  0
LINE
  5
1DE
  8
HONTAI
 62
     2
 10
19007.994980844
 20
65624.732066663651
 30
0.0
 11
22117.017757979309
 21
65624.732066663651
 31
0.0
  0
LINE
  5
1DF
  8
HONTAI
 62
     2
 10
11208.52355971062
 20
65374.732066663659
 30
0.0
 11
18547.01775797936
 21
65374.732066663659
 31
0.0
  0
LINE
  5
1E0
  8
HONTAI
 62
     2
 10
11247.01775797942
 20
65074.732066663651
 30
0.0
 11
18717.017757979371
 21
65074.732066663651
 31
0.0
  0
LINE
  5
1E1
  8
SAIBU
 10
8624.9451697960903
 20
66349.377050977288
 30
0.0
 11
9149.2530586322246
 21
66349.377050977288
 31
0.0
  0
LINE
  5
1E2
  8
SAIBU
 10
9001.1829171975551
 20
66221.107820208024
 30
0.0
 11
9001.1829171975551
 21
66176.655143586744
 31
0.0
  0
LINE
  5
1E3
  8
DOUSEN
 62
     3
 10
3351.0864519207389
 20
64774.732066663659
 30
0.0
 11
22703.802199179569
 21
64774.732066663659
 31
0.0
  0
LINE
  5
1E4
  8
CENTER
 10
4997.0177579793672
 20
66123.277856596804
 30
0.0
 11
4997.0177579793672
 21
64646.186276730507
 31
0.0
  0
LINE
  5
1E5
  8
CENTER
 10
8447.0177579793672
 20
66123.277856596804
 30
0.0
 11
8447.0177579793672
 21
64646.186276730507
 31
0.0
  0
LINE
  5
1E6
  8
CENTER
 10
9897.0177579793672
 20
66123.277856596804
 30
0.0
 11
9897.0177579793672
 21
64646.186276730507
 31
0.0
  0
LINE
  5
1E7
  8
HONTAI
 10
3587.0177579793672
 20
65641.27052820212
 30
0.0
 11
3587.0177579793672
 21
65451.65514358673
 31
0.0
  0
CIRCLE
  5
1E8
  8
SAIBU
 10
4997.0177579793672
 20
65384.732066663673
 30
0.0
 40
362.5
  0
CIRCLE
  5
1E9
  8
SAIBU
 10
4997.0177579793672
 20
65384.732066663673
 30
0.0
 40
323.46153846153851
  0
CIRCLE
  5
1EA
  8
SAIBU
 10
8447.0177579793672
 20
65384.732066663659
 30
0.0
 40
323.46153846153851
  0
CIRCLE
  5
1EB
  8
SAIBU
 10
8447.0177579793672
 20
65384.732066663659
 30
0.0
 40
362.5
  0
CIRCLE
  5
1EC
  8
SAIBU
 10
9897.0177579793672
 20
65384.732066663659
 30
0.0
 40
323.46153846153851
  0
CIRCLE
  5
1ED
  8
SAIBU
 10
9897.0177579793672
 20
65384.732066663659
 30
0.0
 40
362.5
  0
LINE
  5
1EE
  8
CENTER
 10
4258.471968046214
 20
65384.732066663673
 30
0.0
 11
5735.5635479125194
 21
65384.732066663673
 31
0.0
  0
LINE
  5
1EF
  8
CENTER
 10
7708.4719680462149
 20
65384.732066663673
 30
0.0
 11
9185.5635479125194
 21
65384.732066663673
 31
0.0
  0
LINE
  5
1F0
  8
CENTER
 10
9158.4719680462167
 20
65384.732066663659
 30
0.0
 11
10635.563547912519
 21
65384.732066663673
 31
0.0
  0
LINE
  5
1F1
  8
CENTER
 10
9172.0177579793653
 20
66117.61217508305
 30
0.0
 11
9172.0177579793653
 21
64588.286921027553
 31
0.0
  0
LINE
  5
1F2
  8
CENTER
 10
8897.0177579793672
 20
66903.213870209176
 30
0.0
 11
8897.0177579793672
 21
64532.517690258312
 31
0.0
  0
LINE
  5
1F3
  8
HONTAI
 10
6223.9408349024307
 20
66174.732066663651
 30
0.0
 11
9867.4493660152366
 21
66174.732066663651
 31
0.0
  0
LINE
  5
1F4
  8
HONTAI
 10
6223.9408349024307
 20
66107.808989740573
 30
0.0
 11
9880.5614543795527
 21
66107.808989740573
 31
0.0
  0
LINE
  5
1F5
  8
HONTAI
 10
6335.479296440928
 20
67826.088650674836
 30
0.0
 11
6335.479296440928
 21
66509.347451279056
 31
0.0
  0
LINE
  5
1F6
  8
HONTAI
 10
6223.9408349024307
 20
67826.088650674836
 30
0.0
 11
6223.9408349024307
 21
66109.732066663651
 31
0.0
  0
LINE
  5
1F7
  8
HONTAI
 10
5889.325450287055
 20
66912.808989740617
 30
0.0
 11
5889.325450287055
 21
66109.732066663651
 31
0.0
  0
ARC
  5
1F8
  8
HONTAI
 10
6223.9408349024307
 20
66141.27052820212
 30
0.0
 40
33.46153846153846
 50
90.0
 51
270.0
  0
LINE
  5
1F9
  8
HONTAI
 10
7785.4792964409289
 20
66107.808989740573
 30
0.0
 11
7785.4792964409289
 21
65239.732066663688
 31
0.0
  0
LINE
  5
1FA
  8
HONTAI
 10
7729.7100656716211
 20
66107.808989740573
 30
0.0
 11
7729.7100656716793
 21
65239.732066663688
 31
0.0
  0
LINE
  5
1FB
  8
HONTAI
 62
     2
 10
5885.2209558633922
 20
65328.962835894417
 30
0.0
 11
7729.7100656716793
 21
65328.962835894417
 31
0.0
  0
LINE
  5
1FC
  8
HONTAI
 62
     2
 10
5885.2209558633922
 20
65540.885912817495
 30
0.0
 11
7729.7100656716793
 21
65540.885912817495
 31
0.0
  0
LINE
  5
1FD
  8
HONTAI
 62
     2
 10
5885.2209558633922
 20
65630.116682048305
 30
0.0
 11
7729.7100656716793
 21
65630.116682048276
 31
0.0
  0
LINE
  5
1FE
  8
HONTAI
 10
6268.5562195178063
 20
66107.808989740573
 30
0.0
 11
6268.5562195178063
 21
65630.116682048305
 31
0.0
  0
LINE
  5
1FF
  8
HONTAI
 10
6223.9408349024307
 20
65540.885912817495
 30
0.0
 11
6223.9408349024307
 21
65328.962835894417
 31
0.0
  0
LINE
  5
200
  8
HONTAI
 10
6268.5562195178063
 20
65540.885912817495
 30
0.0
 11
6268.5562195178063
 21
65328.962835894417
 31
0.0
  0
LINE
  5
201
  8
HONTAI
 10
6223.9408349024889
 20
66107.808989740573
 30
0.0
 11
6223.9408349024307
 21
65630.116682048305
 31
0.0
  0
LINE
  5
202
  8
HONTAI
 10
4071.4905778735711
 20
67563.307192858163
 30
0.0
 11
3881.6331425947428
 21
66946.270528202105
 31
0.0
  0
LINE
  5
203
  8
HONTAI
 10
3943.5420590013091
 20
65384.732066663659
 30
0.0
 11
4323.2968388055742
 21
65384.732066663688
 31
0.0
  0
LINE
  5
204
  8
HONTAI
 10
4568.2581784010108
 20
66946.270528202105
 30
0.0
 11
5928.3639118255523
 21
66946.270528202149
 31
0.0
  0
LINE
  5
205
  8
HONTAI
 10
4341.631580231915
 20
67648.962835894432
 30
0.0
 11
5816.9954549718823
 21
67648.962835894461
 31
0.0
  0
LINE
  5
206
  8
HONTAI
 10
5889.325450287055
 20
66912.808989740617
 30
0.0
 11
5889.3254502869968
 21
65660.060749836179
 31
0.0
  0
LINE
  5
207
  8
HONTAI
 10
4568.2581784010108
 20
66912.808989740617
 30
0.0
 11
5928.3639118255523
 21
66912.808989740617
 31
0.0
  0
LINE
  5
208
  8
HONTAI
 10
3661.1399213068939
 20
66466.655143586744
 30
0.0
 11
4175.7610685523541
 21
66466.655143586744
 31
0.0
  0
LINE
  5
209
  8
HONTAI
 10
3959.7100656716798
 20
65652.424374355964
 30
0.0
 11
3959.7100656716798
 21
65440.501297432893
 31
0.0
  0
LINE
  5
20A
  8
HONTAI
 10
3620.4792964408698
 20
65418.193605125191
 30
0.0
 11
3937.402373363992
 21
65418.193605125191
 31
0.0
  0
LINE
  5
20B
  8
HONTAI
 10
3620.4792964408698
 20
65674.732066663651
 30
0.0
 11
3937.402373363992
 21
65674.732066663651
 31
0.0
  0
ARC
  5
20C
  8
HONTAI
 10
3620.4792964408698
 20
65641.27052820212
 30
0.0
 40
33.46153846153846
 50
90.0
 51
180.0
  0
ARC
  5
20D
  8
HONTAI
 10
3620.4792964408698
 20
65451.65514358673
 30
0.0
 40
33.46153846153846
 50
180.0
 51
270.0
  0
ARC
  5
20E
  8
HONTAI
 10
3937.402373363992
 20
65652.424374355964
 30
0.0
 40
22.30769230769231
 50
0.0
 51
90.0
  0
ARC
  5
20F
  8
HONTAI
 10
3937.402373363992
 20
65440.501297432893
 30
0.0
 40
22.30769230769231
 50
270.0
 51
0.0
  0
LINE
  5
210
  8
HONTAI
 10
3902.369826874376
 20
65418.193605125191
 30
0.0
 11
3943.5420590013091
 21
65384.732066663659
 31
0.0
  0
LINE
  5
211
  8
HONTAI
 10
3652.6333704619028
 20
66053.962835894432
 30
0.0
 11
3980.0880240069532
 21
66053.962835894461
 31
0.0
  0
LINE
  5
212
  8
HONTAI
 10
3674.9410627695329
 20
66132.039758971339
 30
0.0
 11
5889.325450287055
 21
66132.039758971339
 31
0.0
  0
LINE
  5
213
  8
HONTAI
 10
3661.1399213068939
 20
66466.655143586744
 30
0.0
 11
4175.7610685523541
 21
66466.655143586744
 31
0.0
  0
LINE
  5
214
  8
HONTAI
 10
4002.3957163146401
 20
66031.655143586773
 30
0.0
 11
4002.3957163146401
 21
65790.505942893389
 31
0.0
  0
LINE
  5
215
  8
HONTAI
 10
3724.3883792569109
 20
65768.198250585672
 30
0.0
 11
3980.0880240069532
 21
65768.198250585672
 31
0.0
  0
ARC
  5
216
  8
HONTAI
 10
3652.6333704619028
 20
66031.655143586744
 30
0.0
 40
22.30769230769231
 50
90.0
 51
180.0
  0
ARC
  5
217
  8
HONTAI
 10
3724.3883792569109
 20
65790.505942893389
 30
0.0
 40
22.30769230769231
 50
180.0
 51
270.0
  0
ARC
  5
218
  8
HONTAI
 10
3980.0880240069532
 20
66031.655143586773
 30
0.0
 40
22.30769230769231
 50
0.0
 51
90.0
  0
ARC
  5
219
  8
HONTAI
 10
3980.0880240069532
 20
65790.505942893389
 30
0.0
 40
22.30769230769231
 50
270.0
 51
0.0
  0
LINE
  5
21A
  8
HONTAI
 10
5889.325450287055
 20
66053.962835894432
 30
0.0
 11
4842.1264637052382
 21
66053.962835894432
 31
0.0
  0
LINE
  5
21B
  8
HONTAI
 10
3724.3883792569109
 20
65768.198250585672
 30
0.0
 11
3692.0177579793681
 21
65674.732066663651
 31
0.0
  0
LINE
  5
21C
  8
HONTAI
 10
3708.2030686181101
 20
65721.465158624691
 30
0.0
 11
4357.829295827396
 21
65721.465158624691
 31
0.0
  0
LINE
  5
21D
  8
HONTAI
 10
4583.7705170515392
 20
65931.996599995822
 30
0.0
 11
4443.947944711982
 21
65762.120570590865
 31
0.0
  0
ARC
  5
21E
  8
HONTAI
 10
4842.1264637052382
 20
65719.347451279042
 30
0.0
 40
334.6153846153847
 50
90.0
 51
140.5426839032377
  0
ARC
  5
21F
  8
HONTAI
 10
4357.829295827396
 20
65833.003620163145
 30
0.0
 40
111.5384615384615
 50
270.0
 51
320.54268390323767
  0
LINE
  5
220
  8
HONTAI
 10
4357.829295827396
 20
65721.465158624691
 30
0.0
 11
4323.2968388055742
 21
65384.732066663688
 31
0.0
  0
LINE
  5
221
  8
HONTAI
 10
4568.2581784010108
 20
66946.270528202105
 30
0.0
 11
3841.7961964283322
 21
66905.262693621131
 31
0.0
  0
LINE
  5
222
  8
HONTAI
 10
4568.2581784010108
 20
66912.808989740617
 30
0.0
 11
3804.8777099714212
 21
66867.25909818284
 31
0.0
  0
LINE
  5
223
  8
HONTAI
 10
3881.6331425947428
 20
66946.270528202105
 30
0.0
 11
3777.1593984148062
 21
66838.726089391683
 31
0.0
  0
LINE
  5
224
  8
HONTAI
 10
3652.6333704617859
 20
66109.732066663651
 30
0.0
 11
3652.6333704619028
 21
66053.962835894432
 31
0.0
  0
LINE
  5
225
  8
HONTAI
 10
3630.3256781541568
 20
66031.655143586744
 30
0.0
 11
3702.080686949223
 21
65790.505942893389
 31
0.0
  0
ARC
  5
226
  8
HONTAI
 10
3674.9410627695329
 20
66109.732066663651
 30
0.0
 40
22.30769230769231
 50
90.0
 51
180.0
  0
LINE
  5
227
  8
HONTAI
 10
3674.9410627695329
 20
66332.808989740573
 30
0.0
 11
3752.388096046081
 21
66332.808989740573
 31
0.0
  0
LINE
  5
228
  8
HONTAI
 10
3777.1593984148062
 20
66838.726089391683
 30
0.0
 11
3643.381372780801
 21
66409.704016836797
 31
0.0
  0
LINE
  5
229
  8
HONTAI
 10
3645.2090985752002
 20
66397.155251730554
 30
0.0
 11
3674.9410627695329
 21
66332.808989740573
 31
0.0
  0
LINE
  5
22A
  8
HONTAI
 10
3674.9410627695329
 20
66332.808989740573
 30
0.0
 11
3674.9410627695329
 21
66187.184347065326
 31
0.0
  0
LINE
  5
22B
  8
HONTAI
 10
4132.5536772070618
 20
66886.811084893154
 30
0.0
 11
4132.5536772070618
 21
66132.039758971339
 31
0.0
  0
LINE
  5
22C
  8
HONTAI
 10
4287.1899771086473
 20
67605.289842141574
 30
0.0
 11
4142.5679979767592
 21
66954.388873506046
 31
0.0
  0
LINE
  5
22D
  8
SAIBU
 10
4373.6773338961348
 20
67599.517089497647
 30
0.0
 11
4552.6109051630774
 21
67599.517089497647
 31
0.0
  0
LINE
  5
22E
  8
SAIBU
 10
4632.0884650678199
 20
67566.055551036116
 30
0.0
 11
4632.0884650678199
 21
67068.192996081896
 31
0.0
  0
LINE
  5
22F
  8
SAIBU
 10
5164.905427493999
 20
67566.055551036116
 30
0.0
 11
5164.905427493999
 21
67068.192996081896
 31
0.0
  0
LINE
  5
230
  8
SAIBU
 10
4319.3471502384928
 20
67556.335084170016
 30
0.0
 11
4191.8429037803717
 21
67005.989087798283
 31
0.0
  0
LINE
  5
231
  8
SAIBU
 10
4225.8348314102914
 20
66965.004255929394
 30
0.0
 11
4554.0047225984454
 21
66978.685822146799
 31
0.0
  0
LINE
  5
232
  8
SAIBU
 10
4586.0724436246383
 20
67566.055551036116
 30
0.0
 11
4586.0724436246383
 21
67012.118318750727
 31
0.0
  0
LINE
  5
233
  8
SAIBU
 10
4665.5500035293226
 20
67599.517089497647
 30
0.0
 11
5131.4438890324382
 21
67599.517089497647
 31
0.0
  0
ARC
  5
234
  8
SAIBU
 10
4373.6773338961348
 20
67543.747858728413
 30
0.0
 40
55.769230769230766
 50
90.0
 51
166.95583985086429
  0
ARC
  5
235
  8
SAIBU
 10
4224.4410139749807
 20
66998.436752533307
 30
0.0
 40
33.46153846153846
 50
166.95583985086429
 51
272.38730710105278
  0
LINE
  5
236
  8
HONTAI
 10
3881.6331425947428
 20
66946.270528202105
 30
0.0
 11
4107.2448095674918
 21
66928.290830791811
 31
0.0
  0
ARC
  5
237
  8
HONTAI
 10
4109.9030361027981
 20
66961.646615715872
 30
0.0
 40
33.46153846153846
 50
265.44355033832278
 51
347.4730948181687
  0
ARC
  5
238
  8
HONTAI
 10
4341.631580231915
 20
67593.193605125183
 30
0.0
 40
55.769230769230766
 50
90.0
 51
167.4730948181687
  0
ARC
  5
239
  8
SAIBU
 10
4552.6109051630774
 20
67566.055551036116
 30
0.0
 40
33.46153846153846
 50
0.0
 51
90.0
  0
ARC
  5
23A
  8
SAIBU
 10
4552.6109051630774
 20
67012.118318750727
 30
0.0
 40
33.46153846153846
 50
272.38730710105278
 51
0.0
  0
LINE
  5
23B
  8
SAIBU
 10
4665.5500035293226
 20
67034.731457620364
 30
0.0
 11
5131.4438890324382
 21
67034.731457620364
 31
0.0
  0
ARC
  5
23C
  8
SAIBU
 10
4665.5500035293226
 20
67566.055551036116
 30
0.0
 40
33.46153846153846
 50
90.0
 51
180.0
  0
ARC
  5
23D
  8
SAIBU
 10
5131.4438890324382
 20
67566.055551036116
 30
0.0
 40
33.46153846153846
 50
0.0
 51
90.0
  0
ARC
  5
23E
  8
SAIBU
 10
4665.5500035293226
 20
67068.192996081896
 30
0.0
 40
33.46153846153846
 50
180.0
 51
270.0
  0
ARC
  5
23F
  8
SAIBU
 10
5131.4438890324382
 20
67068.192996081896
 30
0.0
 40
33.46153846153846
 50
270.0
 51
0.0
  0
LINE
  5
240
  8
SAIBU
 10
5297.6647616300907
 20
67600.969065891113
 30
0.0
 11
5677.809402734827
 21
67600.969065891113
 31
0.0
  0
LINE
  5
241
  8
SAIBU
 10
5297.6647616300907
 20
67034.731457620364
 30
0.0
 11
5739.6150752966932
 21
67034.731457620364
 31
0.0
  0
LINE
  5
242
  8
SAIBU
 10
5264.203223168588
 20
67567.507527429581
 30
0.0
 11
5264.203223168588
 21
67068.192996081896
 31
0.0
  0
LINE
  5
243
  8
SAIBU
 10
5711.0175052182449
 20
67571.618060930283
 30
0.0
 11
5772.823177780112
 21
67072.303529582583
 31
0.0
  0
ARC
  5
244
  8
SAIBU
 10
5297.6647616300907
 20
67567.507527429581
 30
0.0
 40
33.46153846153846
 50
90.0
 51
180.0
  0
ARC
  5
245
  8
SAIBU
 10
5297.6647616300907
 20
67068.192996081896
 30
0.0
 40
33.46153846153846
 50
180.0
 51
270.0
  0
ARC
  5
246
  8
SAIBU
 10
5677.809402734827
 20
67567.507527429581
 30
0.0
 40
33.46153846153846
 50
7.0562393471898526
 51
90.0
  0
ARC
  5
247
  8
SAIBU
 10
5739.6150752966932
 20
67068.192996081896
 30
0.0
 40
33.46153846153846
 50
270.0
 51
7.0562393471898526
  0
ARC
  5
248
  8
HONTAI
 10
5026.8574549157929
 20
65719.347451279042
 30
0.0
 40
613.46153846153845
 50
90.0
 51
137.722092401585
  0
LINE
  5
249
  8
HONTAI
 10
5026.8574549157929
 20
66332.808989740573
 30
0.0
 11
5889.325450287055
 21
66332.808989740559
 31
0.0
  0
LINE
  5
24A
  8
HONTAI
 10
5201.2339620559651
 20
66946.270528202149
 30
0.0
 11
5201.2339620559651
 21
66332.808989740573
 31
0.0
  0
LINE
  5
24B
  8
HONTAI
 10
5131.4438890324382
 20
67034.731457620364
 30
0.0
 11
5201.2339620559651
 21
66946.270528202105
 31
0.0
  0
LINE
  5
24C
  8
HONTAI
 10
4572.9630637374066
 20
66097.535633605206
 30
0.0
 11
5833.3486284052196
 21
66097.535633605206
 31
0.0
  0
LINE
  5
24D
  8
HONTAI
 10
4572.9630637374066
 20
66132.039758971339
 30
0.0
 11
4572.9630637374066
 21
66097.535633605206
 31
0.0
  0
LINE
  5
24E
  8
HONTAI
 10
5833.3486284052196
 20
66097.535633605206
 30
0.0
 11
5833.3486284052196
 21
66132.039758971339
 31
0.0
  0
LINE
  5
24F
  8
SAIBU
 10
4545.8660791898437
 20
66760.520641945797
 30
0.0
 11
4545.8660791898437
 21
66243.738056395145
 31
0.0
  0
LINE
  5
250
  8
SAIBU
 10
4523.5583868820968
 20
66221.430364087457
 30
0.0
 11
4267.8587421321126
 21
66221.430364087457
 31
0.0
  0
LINE
  5
251
  8
SAIBU
 10
4245.5510498243666
 20
66243.738056395145
 30
0.0
 11
4245.5510498243666
 21
66760.520641945797
 31
0.0
  0
LINE
  5
252
  8
SAIBU
 10
4267.8587421321126
 20
66782.8283342535
 30
0.0
 11
4523.5583868820968
 21
66782.8283342535
 31
0.0
  0
LINE
  5
253
  8
HONTAI
 10
4620.4998497781626
 20
66466.655143586744
 30
0.0
 11
5889.325450287055
 21
66466.655143586744
 31
0.0
  0
LINE
  5
254
  8
HONTAI
 10
4620.4998497781626
 20
66466.655143586744
 30
0.0
 11
5889.325450287055
 21
66466.655143586744
 31
0.0
  0
LINE
  5
255
  8
HONTAI
 10
4587.0383113166608
 20
66500.116682048276
 30
0.0
 11
4587.0383113166608
 21
66792.923538734147
 31
0.0
  0
LINE
  5
256
  8
HONTAI
 10
4553.5767728551582
 20
66826.385077195679
 30
0.0
 11
4242.6841454754176
 21
66826.385077195679
 31
0.0
  0
LINE
  5
257
  8
HONTAI
 10
4209.222607013915
 20
66792.923538734147
 30
0.0
 11
4209.222607013915
 21
66500.116682048276
 31
0.0
  0
ARC
  5
258
  8
SAIBU
 10
4267.8587421321126
 20
66243.738056395145
 30
0.0
 40
22.30769230769231
 50
180.0
 51
270.0
  0
ARC
  5
259
  8
SAIBU
 10
4523.5583868820968
 20
66243.738056395145
 30
0.0
 40
22.30769230769231
 50
270.0
 51
0.0
  0
ARC
  5
25A
  8
SAIBU
 10
4267.8587421321126
 20
66760.520641945797
 30
0.0
 40
22.30769230769231
 50
90.0
 51
180.0
  0
ARC
  5
25B
  8
SAIBU
 10
4523.5583868820968
 20
66760.520641945797
 30
0.0
 40
22.30769230769231
 50
0.0
 51
90.0
  0
ARC
  5
25C
  8
HONTAI
 10
4242.6841454754176
 20
66792.923538734147
 30
0.0
 40
33.46153846153846
 50
90.0
 51
180.0
  0
ARC
  5
25D
  8
HONTAI
 10
4553.5767728551582
 20
66792.923538734147
 30
0.0
 40
33.46153846153846
 50
0.0
 51
90.0
  0
ARC
  5
25E
  8
HONTAI
 10
4620.4998497781626
 20
66500.116682048276
 30
0.0
 40
33.46153846153846
 50
180.0
 51
270.0
  0
ARC
  5
25F
  8
HONTAI
 10
4175.7610685523541
 20
66500.116682048276
 30
0.0
 40
33.46153846153846
 50
270.0
 51
0.0
  0
LINE
  5
260
  8
SAIBU
 10
4954.2195887170683
 20
66700.554511462644
 30
0.0
 11
5143.5724046834812
 21
66700.554511462644
 31
0.0
  0
LINE
  5
261
  8
SAIBU
 10
5160.3031739142889
 20
66683.823742231863
 30
0.0
 11
5160.3031739142889
 21
66620.492518599684
 31
0.0
  0
LINE
  5
262
  8
SAIBU
 10
5143.5724046834812
 20
66603.761749368903
 30
0.0
 11
4954.2195887170092
 21
66603.761749368903
 31
0.0
  0
LINE
  5
263
  8
SAIBU
 10
4937.4888194861987
 20
66620.492518599684
 30
0.0
 11
4937.4888194862579
 21
66683.823742231863
 31
0.0
  0
ARC
  5
264
  8
SAIBU
 10
4954.2195887170683
 20
66683.823742231863
 30
0.0
 40
16.73076923076923
 50
90.0
 51
180.0
  0
ARC
  5
265
  8
SAIBU
 10
4954.2195887170092
 20
66620.492518599684
 30
0.0
 40
16.73076923076923
 50
180.0
 51
270.0
  0
ARC
  5
266
  8
SAIBU
 10
5143.5724046834812
 20
66683.823742231863
 30
0.0
 40
16.73076923076923
 50
0.0
 51
90.0
  0
ARC
  5
267
  8
SAIBU
 10
5143.5724046834812
 20
66620.492518599684
 30
0.0
 40
16.73076923076923
 50
270.0
 51
0.0
  0
ARC
  5
268
  8
SAIBU
 10
4979.7494075135028
 20
66652.158130415773
 30
0.0
 40
10.52622287322643
 50
92.603016533492635
 51
267.39698346650732
  0
ARC
  5
269
  8
SAIBU
 10
5112.9536366510729
 20
66652.158130415773
 30
0.0
 40
16.575770504088581
 50
267.39698346650732
 51
92.603016533492635
  0
LINE
  5
26A
  8
SAIBU
 10
4979.2713529722832
 20
66662.673492122936
 30
0.0
 11
5112.2008383815701
 21
66668.71679771028
 31
0.0
  0
LINE
  5
26B
  8
SAIBU
 10
5112.2008383815701
 20
66635.599463121296
 30
0.0
 11
4979.2713529722832
 21
66641.64276870864
 31
0.0
  0
CIRCLE
  5
26C
  8
SAIBU
 10
5112.9536366510729
 20
66652.158130415773
 30
0.0
 40
8.7793767375929193
  0
LINE
  5
26D
  8
SAIBU
 10
3720.0034643692488
 20
65998.398811329796
 30
0.0
 11
3720.0034643692488
 21
65837.329576495904
 31
0.0
  0
LINE
  5
26E
  8
SAIBU
 10
3742.3111566769949
 20
65815.021884188231
 30
0.0
 11
3789.727814948099
 21
65815.021884188231
 31
0.0
  0
LINE
  5
26F
  8
SAIBU
 10
3812.0355072557868
 20
65837.329576495904
 30
0.0
 11
3812.0355072557868
 21
65998.398811329796
 31
0.0
  0
LINE
  5
270
  8
SAIBU
 10
3789.727814948099
 20
66020.706503637484
 30
0.0
 11
3742.3111566769949
 21
66020.706503637484
 31
0.0
  0
ARC
  5
271
  8
SAIBU
 10
3789.727814948099
 20
65998.398811329796
 30
0.0
 40
22.30769230769231
 50
0.0
 51
90.0
  0
ARC
  5
272
  8
SAIBU
 10
3789.727814948099
 20
65837.329576495904
 30
0.0
 40
22.30769230769231
 50
270.0
 51
0.0
  0
ARC
  5
273
  8
SAIBU
 10
3742.3111566769949
 20
65998.398811329796
 30
0.0
 40
22.30769230769231
 50
90.0
 51
180.0
  0
ARC
  5
274
  8
SAIBU
 10
3742.3111566769949
 20
65837.329576495904
 30
0.0
 40
22.30769230769231
 50
180.0
 51
270.0
  0
LINE
  5
275
  8
HONTAI
 10
4027.0706397283061
 20
67748.941165868251
 30
0.0
 11
5679.0249158749066
 21
67748.941165868251
 31
0.0
  0
ARC
  5
276
  8
HONTAI
 10
5679.0249158749066
 20
67603.752022727625
 30
0.0
 40
145.18914314062269
 50
18.143170264433351
 51
90.0
  0
LINE
  5
277
  8
HONTAI
 10
3940.3415104376909
 20
66875.342041978802
 30
0.0
 11
3913.2686624974308
 21
66466.655143586744
 31
0.0
  0
LINE
  5
278
  8
SAIBU
 10
5559.2185823089394
 20
65864.347451279085
 30
0.0
 11
5623.5841463429097
 21
65864.347451279056
 31
0.0
  0
LINE
  5
279
  8
HONTAI
 10
9880.5614543795527
 20
66107.808989740573
 30
0.0
 11
10358.101374013841
 21
65962.222955823469
 31
0.0
  0
LINE
  5
27A
  8
HONTAI
 10
10358.101374013841
 20
65962.222955823439
 30
0.0
 11
10565.40165351159
 21
65469.972785053898
 31
0.0
  0
LINE
  5
27B
  8
HONTAI
 10
10605.665443456581
 20
65469.972785053898
 30
0.0
 11
10392.95492321872
 21
66010.9534600802
 31
0.0
  0
LINE
  5
27C
  8
HONTAI
 10
9867.4493660152366
 20
66174.732066663651
 30
0.0
 11
10392.954923218669
 21
66010.9534600802
 31
0.0
  0
LINE
  5
27D
  8
HONTAI
 10
10273.9382838734
 20
65864.347451279042
 30
0.0
 11
10399.319479466851
 21
65864.347451279042
 31
0.0
  0
LINE
  5
27E
  8
HONTAI
 10
9449.361454587226
 20
65864.347451279042
 30
0.0
 11
9522.2128212216485
 21
65864.347451279042
 31
0.0
  0
LINE
  5
27F
  8
HONTAI
 10
6268.5562195178063
 20
65864.347451279042
 30
0.0
 11
7235.4266727924414
 21
65864.347451279027
 31
0.0
  0
LINE
  5
280
  8
HONTAI
 10
8140.7399477351864
 20
66107.808989740573
 30
0.0
 11
7886.510672993697
 21
65705.767164467397
 31
0.0
  0
LINE
  5
281
  8
HONTAI
 10
7905.8858391422846
 20
65705.767164467397
 30
0.0
 11
7818.6975914736686
 21
65705.767164467397
 31
0.0
  0
LINE
  5
282
  8
HONTAI
 10
7818.6975914736686
 20
65705.767164467397
 30
0.0
 11
7818.6975914736686
 21
66000.985092851304
 31
0.0
  0
LINE
  5
283
  8
HONTAI
 10
7818.6975914736686
 20
66000.985092851304
 30
0.0
 11
7905.8858391422846
 21
66000.985092851304
 31
0.0
  0
LINE
  5
284
  8
HONTAI
 10
7905.8858391422846
 20
66000.985092851304
 30
0.0
 11
7905.8858391422846
 21
65822.582805371567
 31
0.0
  0
LINE
  5
285
  8
HONTAI
 10
8086.2472877058608
 20
66107.808989740573
 30
0.0
 11
7832.0180129643113
 21
65705.767164467397
 31
0.0
  0
LINE
  5
286
  8
HONTAI
 10
7986.7881783925995
 20
65864.347451279085
 30
0.0
 11
8060.381363047898
 21
65864.347451279085
 31
0.0
  0
LINE
  5
287
  8
HONTAI
 10
7905.8858391422846
 20
65736.4073304013
 30
0.0
 11
7905.8858391422846
 21
65705.767164467397
 31
0.0
  0
LINE
  5
288
  8
HONTAI
 10
7905.8858391422846
 20
65864.347451279085
 30
0.0
 11
7932.295518363273
 21
65864.347451279085
 31
0.0
  0
LINE
  5
289
  8
HONTAI
 10
7932.295518363273
 20
65864.347451279085
 30
0.0
 11
7932.295518363273
 21
66109.732066663651
 31
0.0
  0
LINE
  5
28A
  8
HONTAI
 10
8068.7520417461919
 20
65993.966281614863
 30
0.0
 11
9449.361454587226
 21
65993.966281614863
 31
0.0
  0
LINE
  5
28B
  8
HONTAI
 10
9449.361454587226
 20
65993.966281614863
 30
0.0
 11
9449.361454587226
 21
65802.075961286726
 31
0.0
  0
LINE
  5
28C
  8
HONTAI
 10
9449.361454587226
 20
65802.075961286726
 30
0.0
 11
8913.1254111070575
 21
65802.075961286726
 31
0.0
  0
LINE
  5
28D
  8
HONTAI
 10
8182.7099780974968
 20
65993.966281614863
 30
0.0
 11
8182.7099780974968
 21
65944.275895455445
 31
0.0
  0
LINE
  5
28E
  8
HONTAI
 10
8214.1946335618559
 20
66107.808989740573
 30
0.0
 11
8214.1946335618559
 21
65993.966281614863
 31
0.0
  0
LINE
  5
28F
  8
HONTAI
 10
8320.7580054870068
 20
66107.808989740573
 30
0.0
 11
8320.7580054870068
 21
65993.966281614863
 31
0.0
  0
LINE
  5
290
  8
HONTAI
 10
9597.5799130494997
 20
66107.808989740573
 30
0.0
 11
9597.5799130494997
 21
65915.774558863573
 31
0.0
  0
LINE
  5
291
  8
HONTAI
 10
9534.6106021206651
 20
66107.808989740573
 30
0.0
 11
9534.6106021206651
 21
65875.406147273607
 31
0.0
  0
LINE
  5
292
  8
HONTAI
 10
9781.6439914609364
 20
66107.808989740573
 30
0.0
 11
9781.6439914609364
 21
65985.722749245324
 31
0.0
  0
LINE
  5
293
  8
HONTAI
 10
9834.9256774234545
 20
66107.808989740573
 30
0.0
 11
9834.9256774234545
 21
65994.211515315081
 31
0.0
  0
LINE
  5
294
  8
HONTAI
 10
7785.4792964409289
 20
65584.292261582304
 30
0.0
 11
7871.3745696296401
 21
65584.292261582304
 31
0.0
  0
LINE
  5
295
  8
HONTAI
 10
10473.451386946341
 20
65584.292261582275
 30
0.0
 11
10517.25853270918
 21
65584.292261582275
 31
0.0
  0
CIRCLE
  5
296
  8
HONTAI
 10
9172.0177579793653
 20
65393.239956892328
 30
0.0
 40
57.294928971501442
  0
LINE
  5
297
  8
HONTAI
 10
9309.379438747681
 20
65208.61771477219
 30
0.0
 11
9276.6639990490803
 21
65105.885912817503
 31
0.0
  0
LINE
  5
298
  8
HONTAI
 10
9033.1498996390437
 20
65213.347357334278
 30
0.0
 11
9067.371516909654
 21
65105.885912817503
 31
0.0
  0
LINE
  5
299
  8
HONTAI
 10
9067.371516909654
 20
65105.885912817503
 30
0.0
 11
9276.6639990490803
 21
65105.885912817503
 31
0.0
  0
LINE
  5
29A
  8
HONTAI
 10
5889.325450287055
 20
66053.962835894432
 30
0.0
 11
6066.5629133428738
 21
65931.145488959242
 31
0.0
  0
LINE
  5
29B
  8
HONTAI
 10
5889.3254502869968
 20
65809.335454453772
 30
0.0
 11
5805.524568511144
 21
65809.335454453772
 31
0.0
  0
LINE
  5
29C
  8
HONTAI
 10
5805.524568511144
 20
65809.335454453772
 30
0.0
 11
5510.0186609495722
 21
66053.962835894432
 31
0.0
  0
LINE
  5
29D
  8
HONTAI
 10
5889.3254502869968
 20
65864.347451279027
 30
0.0
 11
6223.9408349024307
 21
65864.347451279042
 31
0.0
  0
LINE
  5
29E
  8
HONTAI
 10
6190.4792964408689
 20
66141.268446388975
 30
0.0
 11
6190.479296440928
 21
65935.014802922757
 31
0.0
  0
ARC
  5
29F
  8
HONTAI
 10
6145.8639118255533
 20
65935.014802922757
 30
0.0
 40
44.615384615384613
 50
343.47259141628359
 51
0.0
  0
LINE
  5
2A0
  8
HONTAI
 10
5928.3639118255523
 20
66723.193605125198
 30
0.0
 11
6105.9476851310746
 21
66723.193605125183
 31
0.0
  0
LINE
  5
2A1
  8
HONTAI
 10
6112.4023733639906
 20
66766.352292549796
 30
0.0
 11
6112.4023733639906
 21
66723.193605125198
 31
0.0
  0
LINE
  5
2A2
  8
HONTAI
 10
5928.3639118255523
 20
66766.352292549796
 30
0.0
 11
6105.9476851310746
 21
66766.352292549796
 31
0.0
  0
LINE
  5
2A3
  8
HONTAI
 10
6254.6214495080931
 20
66509.347451279027
 30
0.0
 11
6358.5770868162799
 21
66509.347451279056
 31
0.0
  0
LINE
  5
2A4
  8
HONTAI
 10
5805.524568511144
 20
65809.335454453772
 30
0.0
 11
5839.4388239934051
 21
65660.060749836193
 31
0.0
  0
LINE
  5
2A5
  8
HONTAI
 10
5839.4388239934051
 20
65660.060749836193
 30
0.0
 11
6223.9408349024889
 21
65660.060749836193
 31
0.0
  0
ARC
  5
2A6
  8
HONTAI
 10
5958.1256492738903
 20
65434.99115598997
 30
0.0
 40
92.042797929842962
 50
142.3797406325568
 51
217.6202593674432
  0
LINE
  5
2A7
  8
HONTAI
 10
5870.3106414421063
 20
65462.566526345807
 30
0.0
 11
5829.257487510069
 21
65462.566526345807
 31
0.0
  0
LINE
  5
2A8
  8
HONTAI
 10
5769.1956162565921
 20
65440.258834038119
 30
0.0
 11
5769.1956162565921
 21
65430.67773670816
 31
0.0
  0
LINE
  5
2A9
  8
HONTAI
 10
5791.503308564279
 20
65408.370044400457
 30
0.0
 11
5814.5824420742874
 21
65408.370044400457
 31
0.0
  0
ARC
  5
2AA
  8
HONTAI
 10
5791.503308564279
 20
65440.258834038119
 30
0.0
 40
22.30769230769231
 50
90.0
 51
180.0
  0
ARC
  5
2AB
  8
HONTAI
 10
5791.503308564279
 20
65430.67773670816
 30
0.0
 40
22.30769230769231
 50
180.0
 51
270.0
  0
ARC
  5
2AC
  8
HONTAI
 10
6046.5723010151123
 20
65505.22107696384
 30
0.0
 40
258.6109077324104
 50
143.22057271316771
 51
169.7402691711649
  0
LINE
  5
2AD
  8
HONTAI
 10
5791.503308564279
 20
65408.370044400457
 30
0.0
 11
5609.2559685126471
 21
65387.043924370817
 31
0.0
  0
LINE
  5
2AE
  8
HONTAI
 10
4183.8788973031624
 20
66132.039758971339
 30
0.0
 11
4183.8788973031624
 21
66098.099402128049
 31
0.0
  0
LINE
  5
2AF
  8
HONTAI
 10
4183.8788973031624
 20
66098.099402128049
 30
0.0
 11
4435.7856438990857
 21
66098.099402128049
 31
0.0
  0
LINE
  5
2B0
  8
HONTAI
 10
4435.7856438990857
 20
66098.099402128049
 30
0.0
 11
4435.7856438990857
 21
66132.039758971339
 31
0.0
  0
LINE
  5
2B1
  8
SAIBU
 10
4393.6851020464956
 20
65981.934461157711
 30
0.0
 11
4135.9434895928416
 21
65981.934461157711
 31
0.0
  0
LINE
  5
2B2
  8
SAIBU
 10
4113.6357972851538
 20
65959.626768850023
 30
0.0
 11
4113.6357972851538
 21
65810.633918514854
 31
0.0
  0
LINE
  5
2B3
  8
SAIBU
 10
4135.9434895928416
 20
65788.326226207166
 30
0.0
 11
4348.9489183677651
 21
65788.326226207166
 31
0.0
  0
LINE
  5
2B4
  8
SAIBU
 10
4370.3142990933547
 20
65804.218808028978
 30
0.0
 11
4415.050482772087
 21
65953.211658364162
 31
0.0
  0
ARC
  5
2B5
  8
SAIBU
 10
4135.9434895928416
 20
65959.626768850023
 30
0.0
 40
22.30769230769231
 50
90.0
 51
180.0
  0
ARC
  5
2B6
  8
SAIBU
 10
4135.9434895928416
 20
65810.633918514854
 30
0.0
 40
22.30769230769231
 50
180.0
 51
270.0
  0
ARC
  5
2B7
  8
SAIBU
 10
4348.9489183677651
 20
65810.633918514854
 30
0.0
 40
22.30769230769231
 50
270.0
 51
343.28723433555172
  0
ARC
  5
2B8
  8
SAIBU
 10
4393.6851020464956
 20
65959.626768850023
 30
0.0
 40
22.30769230769231
 50
343.28723433555172
 51
90.0
  0
LINE
  5
2B9
  8
SAIBU
 10
5510.0186609495722
 20
66053.962835894432
 30
0.0
 11
4978.058553651761
 21
66022.34851242289
 31
0.0
  0
ARC
  5
2BA
  8
SAIBU
 10
5637.1867773008707
 20
65923.851990672541
 30
0.0
 40
98.080730211061663
 50
133.970084034894
 51
221.93678913342029
  0
LINE
  5
2BB
  8
SAIBU
 10
5541.4488774448691
 20
65802.546246087208
 30
0.0
 11
5467.4227215871497
 21
65797.859904800454
 31
0.0
  0
ARC
  5
2BC
  8
SAIBU
 10
5539.3347746788349
 20
65835.940933175239
 30
0.0
 40
33.46153846153846
 50
273.62236472911587
 51
41.936789133420291
  0
LINE
  5
2BD
  8
SAIBU
 10
5542.1386816613658
 20
65899.65097511452
 30
0.0
 11
5608.7963239988021
 21
65899.65097511452
 31
0.0
  0
LINE
  5
2BE
  8
SAIBU
 10
5515.4519729697786
 20
65934.948972018668
 30
0.0
 11
5322.0132229246947
 21
65924.391526895895
 31
0.0
  0
LINE
  5
2BF
  8
SAIBU
 10
4617.3276916604664
 20
65885.931400248926
 30
0.0
 11
4592.8867997899943
 21
65884.597472198773
 31
0.0
  0
ARC
  5
2C0
  8
SAIBU
 10
4525.7895153438149
 20
66007.657054639363
 30
0.0
 40
140.16314212553289
 50
272.02881235605469
 51
358.42186501480489
  0
LINE
  5
2C1
  8
SAIBU
 10
4507.5563993704563
 20
65773.904974284509
 30
0.0
 11
4457.6773481088749
 21
65778.800971302597
 31
0.0
  0
LINE
  5
2C2
  8
SAIBU
 10
4958.6162432108249
 20
66053.962835894432
 30
0.0
 11
4939.4486130499572
 21
66014.84497664393
 31
0.0
  0
LINE
  5
2C3
  8
SAIBU
 10
4958.6162432108249
 20
66053.962835894432
 30
0.0
 11
4981.134690089355
 21
66017.346536311103
 31
0.0
  0
LINE
  5
2C4
  8
SAIBU
 10
4942.0775388432958
 20
66020.210165157012
 30
0.0
 11
4665.8994932546339
 21
66003.796938019863
 31
0.0
  0
LINE
  5
2C5
  8
SAIBU
 10
4959.7225878986346
 20
66030.871795620216
 30
0.0
 11
4952.3999177153746
 21
66015.927476517565
 31
0.0
  0
LINE
  5
2C6
  8
SAIBU
 10
4959.7225878986346
 20
66030.871795620216
 30
0.0
 11
4968.3267727064367
 21
66016.880892504632
 31
0.0
  0
LINE
  5
2C7
  8
SAIBU
 10
5430.2826808447426
 20
65838.390732986023
 30
0.0
 11
5515.4519729697786
 21
65934.948972018668
 31
0.0
  0
ARC
  5
2C8
  8
SAIBU
 10
5683.0897993862454
 20
66044.615323904349
 30
0.0
 40
366.43635704704519
 50
180.33520312651621
 51
201.2845200886587
  0
LINE
  5
2C9
  8
SAIBU
 10
5316.6597133591131
 20
66042.471537521895
 30
0.0
 11
5515.4519729697786
 21
65934.948972018668
 31
0.0
  0
LINE
  5
2CA
  8
SAIBU
 10
4457.6773481088749
 20
65778.800971302597
 30
0.0
 11
4466.2880538850732
 21
65749.366360859509
 31
0.0
  0
ARC
  5
2CB
  8
SAIBU
 10
4487.6984240975871
 20
65755.629681341146
 30
0.0
 40
22.30769230769231
 50
196.30613854950209
 51
250.39098136036031
  0
LINE
  5
2CC
  8
HONTAI
 10
4086.3919847181819
 20
65384.732066663688
 30
0.0
 11
4086.3919847181819
 21
65337.482419702428
 31
0.0
  0
LINE
  5
2CD
  8
HONTAI
 10
4075.2381385643089
 20
65326.328573548592
 30
0.0
 11
3979.7357925708352
 21
65326.328573548592
 31
0.0
  0
LINE
  5
2CE
  8
HONTAI
 10
3972.2778012643398
 20
65329.188647961157
 30
0.0
 11
3958.7140424966642
 21
65341.385558863447
 31
0.0
  0
LINE
  5
2CF
  8
HONTAI
 10
3957.1526177031628
 20
65356.241221889941
 30
0.0
 11
3977.8805477550191
 21
65384.732066663659
 31
0.0
  0
ARC
  5
2D0
  8
HONTAI
 10
3966.1720338032178
 20
65349.679330604733
 30
0.0
 40
11.15384615384615
 50
143.96300535222201
 51
228.03723643622101
  0
ARC
  5
2D1
  8
HONTAI
 10
3979.7357925708352
 20
65337.482419702428
 30
0.0
 40
11.15384615384615
 50
228.03723643622101
 51
270.0
  0
ARC
  5
2D2
  8
HONTAI
 10
4075.2381385643089
 20
65337.482419702428
 30
0.0
 40
11.15384615384615
 50
270.0
 51
0.0
  0
LINE
  5
2D3
  8
HONTAI
 10
5889.325450287055
 20
66267.022887311032
 30
0.0
 11
5954.7349055143131
 21
66267.022887311032
 31
0.0
  0
LINE
  5
2D4
  8
HONTAI
 10
5954.7349055143131
 20
66267.022887311032
 30
0.0
 11
5995.2539765488182
 21
66172.559421594604
 31
0.0
  0
LINE
  5
2D5
  8
HONTAI
 10
6027.4003036077202
 20
66043.646526424331
 30
0.0
 11
6027.4003036077202
 21
65956.831281132763
 31
0.0
  0
LINE
  5
2D6
  8
HONTAI
 10
5889.325450287055
 20
66484.832258286464
 30
0.0
 11
5894.9023733639924
 21
66484.832258286464
 31
0.0
  0
LINE
  5
2D7
  8
HONTAI
 10
5935.3574353019067
 20
66462.524565978791
 30
0.0
 11
5935.3574353019067
 21
66349.306430499826
 31
0.0
  0
LINE
  5
2D8
  8
HONTAI
 10
5935.3574353019067
 20
66349.306430499826
 30
0.0
 11
5969.7169797457464
 21
66349.306430499826
 31
0.0
  0
LINE
  5
2D9
  8
HONTAI
 10
5889.325450287055
 20
66223.461022243515
 30
0.0
 11
5973.4202913582267
 21
66223.461022243515
 31
0.0
  0
ARC
  5
2DA
  8
HONTAI
 10
5969.7169797457464
 20
66315.844892038294
 30
0.0
 40
33.46153846153846
 50
44.555481201861831
 51
90.0
  0
ARC
  5
2DB
  8
HONTAI
 10
5913.0497429942188
 20
66462.524565978791
 30
0.0
 40
22.30769230769231
 50
0.0
 51
90.0
  0
LINE
  5
2DC
  8
HONTAI
 10
5928.3639118255523
 20
66946.270528202105
 30
0.0
 11
5928.3639118255523
 21
66518.29379674801
 31
0.0
  0
ARC
  5
2DD
  8
HONTAI
 10
5894.9023733639924
 20
66518.29379674801
 30
0.0
 40
33.46153846153846
 50
270.0
 51
0.0
  0
LINE
  5
2DE
  8
HONTAI
 10
5894.9023733639924
 20
66484.832258286464
 30
0.0
 11
5913.0497429942188
 21
66484.832258286464
 31
0.0
  0
LINE
  5
2DF
  8
HONTAI
 10
5928.3639118255523
 20
66946.270528202149
 30
0.0
 11
5805.7737272162631
 21
67719.767640016362
 31
0.0
  0
ARC
  5
2E0
  8
HONTAI
 10
5640.5285208977593
 20
67693.578220509808
 30
0.0
 40
167.30769230769229
 50
9.0058008344268465
 51
90.0
  0
LINE
  5
2E1
  8
SAIBU
 10
8658.8557112487906
 20
66310.338589438819
 30
0.0
 11
9149.2530586322246
 21
66310.338589438819
 31
0.0
  0
LINE
  5
2E2
  8
SAIBU
 10
8747.6023811173782
 20
66221.107820208024
 30
0.0
 11
9497.3915152999398
 21
66221.107820208024
 31
0.0
  0
LINE
  5
2E3
  8
SAIBU
 10
8613.7913236422173
 20
66338.223204823429
 30
0.0
 11
8613.7913236422173
 21
66267.538965182612
 31
0.0
  0
LINE
  5
2E4
  8
SAIBU
 10
8613.7913236422173
 20
66267.538965182612
 30
0.0
 11
8647.7018650949176
 21
66267.538965182612
 31
0.0
  0
LINE
  5
2E5
  8
SAIBU
 10
8647.7018650949176
 20
66267.538965182612
 30
0.0
 11
8647.7018650949176
 21
66299.184743284975
 31
0.0
  0
ARC
  5
2E6
  8
SAIBU
 10
9149.2530586322246
 20
65713.334992709657
 30
0.0
 40
597.00359672915192
 50
58.269974820488699
 51
90.0
  0
ARC
  5
2E7
  8
SAIBU
 10
9149.2530586322246
 20
65713.334992709657
 30
0.0
 40
636.04205826761336
 50
56.143059129940738
 51
90.0
  0
ARC
  5
2E8
  8
SAIBU
 10
9497.3915152999398
 20
66232.261666361883
 30
0.0
 40
11.15384615384615
 50
270.0
 51
56.143059129940738
  0
ARC
  5
2E9
  8
SAIBU
 10
8624.9451697960903
 20
66338.223204823429
 30
0.0
 40
11.15384615384615
 50
90.0
 51
180.0
  0
ARC
  5
2EA
  8
SAIBU
 10
8658.8557112487906
 20
66299.184743284975
 30
0.0
 40
11.15384615384615
 50
90.0
 51
180.0
  0
LINE
  5
2EB
  8
SAIBU
 10
8747.6023811173782
 20
66221.107820208024
 30
0.0
 11
8760.4163300053624
 21
66221.107820208024
 31
0.0
  0
ARC
  5
2EC
  8
HONTAI
 10
4179.7422207438212
 20
65347.182796016619
 30
0.0
 40
67.762936712229234
 50
261.77970317614557
 51
33.650603523105609
  0
LINE
  5
2ED
  8
HONTAI
 10
4170.0535065835857
 20
65384.732066663688
 30
0.0
 11
4170.0535065835857
 21
65280.116079906562
 31
0.0
  0
LINE
  5
2EE
  8
HONTAI
 10
4140.9873222110618
 20
65384.732066663688
 30
0.0
 11
4140.9873222110618
 21
65280.116079906562
 31
0.0
  0
LINE
  5
2EF
  8
HONTAI
 10
4170.0535065835857
 20
65280.116079906562
 30
0.0
 11
4140.9873222110618
 21
65280.116079906562
 31
0.0
  0
LINE
  5
2F0
  8
HONTAI
 10
4258.2216935531169
 20
65384.732066663688
 30
0.0
 11
4258.2216935531169
 21
65310.881245596851
 31
0.0
  0
LINE
  5
2F1
  8
HONTAI
 10
4258.2216935531169
 20
65310.881245596851
 30
0.0
 11
4280.0213213595853
 21
65310.881245596851
 31
0.0
  0
LINE
  5
2F2
  8
HONTAI
 10
4280.0213213595853
 20
65310.881245596851
 30
0.0
 11
4280.0213213595853
 21
65384.732066663688
 31
0.0
  0
LINE
  5
2F3
  8
HONTAI
 10
3846.450797148776
 20
66310.5012974329
 30
0.0
 11
3846.450797148776
 21
66198.33819321917
 31
0.0
  0
ARC
  5
2F4
  8
HONTAI
 10
3674.9410627695329
 20
66159.612053018325
 30
0.0
 40
27.572294046982979
 50
90.0
 51
270.0
  0
LINE
  5
2F5
  8
HONTAI
 10
3674.9410627695329
 20
66187.184347065326
 30
0.0
 11
3835.2969509949039
 21
66187.184347065326
 31
0.0
  0
LINE
  5
2F6
  8
HONTAI
 10
3651.873395760224
 20
66436.937677085254
 30
0.0
 11
3996.2407134635441
 21
66436.937677085254
 31
0.0
  0
LINE
  5
2F7
  8
HONTAI
 10
4018.5484057712301
 20
66414.629984777566
 30
0.0
 11
4018.5484057712301
 21
66169.555835321429
 31
0.0
  0
LINE
  5
2F8
  8
HONTAI
 10
4007.3945596174158
 20
66158.401989167585
 30
0.0
 11
3647.3953345232012
 21
66158.401989167585
 31
0.0
  0
ARC
  5
2F9
  8
HONTAI
 10
3996.2407134635441
 20
66414.629984777566
 30
0.0
 40
22.30769230769231
 50
0.0
 51
90.0
  0
ARC
  5
2FA
  8
HONTAI
 10
3758.916059042298
 20
66150.868403986096
 30
0.0
 40
182.05765857432661
 50
61.261827498642759
 51
92.054870554967806
  0
ARC
  5
2FB
  8
HONTAI
 10
3835.2969509949039
 20
66198.33819321917
 30
0.0
 40
11.15384615384615
 50
270.0
 51
0.0
  0
ARC
  5
2FC
  8
HONTAI
 10
4007.3945596174158
 20
66169.555835321429
 30
0.0
 40
11.15384615384615
 50
270.0
 51
0.0
  0
ARC
  5
2FD
  8
HONTAI
 10
3665.4595411764171
 20
66406.512212270609
 30
0.0
 40
22.30769230769231
 50
171.77383621728521
 51
204.7998657377068
  0
LINE
  5
2FE
  8
CENTER
 10
20297.0177579794
 20
60851.173991014148
 30
0.0
 11
20297.0177579794
 21
57861.17399101414
 31
0.0
  0
LINE
  5
2FF
  8
CENTER
 10
21347.017757979371
 20
60851.173991014148
 30
0.0
 11
21347.017757979309
 21
57861.17399101414
 31
0.0
  0
LINE
  5
300
  8
HONTAIGAIKEI
 10
22117.017757979371
 20
60851.173991014148
 30
0.0
 11
22117.017757979371
 21
57861.17399101414
 31
0.0
  0
LINE
  5
301
  8
HONTAIGAIKEI
 10
18547.01775797936
 20
60851.173991014148
 30
0.0
 11
18547.01775797936
 21
57861.17399101414
 31
0.0
  0
LINE
  5
302
  8
HONTAIGAIKEI
 10
22117.017757979371
 20
57861.17399101414
 30
0.0
 11
11847.017757979371
 21
57861.17399101414
 31
0.0
  0
LINE
  5
303
  8
HONTAIGAIKEI
 10
11847.017757979371
 20
60851.173991014148
 30
0.0
 11
11847.017757979371
 21
57861.17399101414
 31
0.0
  0
LINE
  5
304
  8
HONTAIGAIKEI
 10
11347.01775797936
 20
60651.17399101414
 30
0.0
 11
11697.01775797942
 21
60651.17399101414
 31
0.0
  0
LINE
  5
305
  8
HONTAIGAIKEI
 10
11697.017757979371
 20
58061.173991014148
 30
0.0
 11
11347.01775797936
 21
58061.173991014148
 31
0.0
  0
LINE
  5
306
  8
HONTAIGAIKEI
 10
11697.017757979371
 20
60651.17399101414
 30
0.0
 11
11697.01775797936
 21
60356.173991014148
 31
0.0
  0
LINE
  5
307
  8
HONTAIGAIKEI
 10
11347.01775797936
 20
60651.17399101414
 30
0.0
 11
11347.01775797936
 21
60356.173991014148
 31
0.0
  0
LINE
  5
308
  8
HONTAIGAIKEI
 10
11697.01775797936
 20
58356.173991014148
 30
0.0
 11
11697.01775797942
 21
58061.173991014148
 31
0.0
  0
LINE
  5
309
  8
HONTAIGAIKEI
 10
11347.01775797936
 20
58356.173991014148
 30
0.0
 11
11347.01775797942
 21
58061.173991014148
 31
0.0
  0
LINE
  5
30A
  8
HONTAIGAIKEI
 10
11447.01775797942
 20
60801.173991014148
 30
0.0
 11
11847.01775797942
 21
60801.173991014148
 31
0.0
  0
LINE
  5
30B
  8
HONTAIGAIKEI
 10
11847.01775797942
 20
57911.17399101414
 30
0.0
 11
11447.01775797942
 21
57911.17399101414
 31
0.0
  0
LINE
  5
30C
  8
HONTAIGAIKEI
 10
11247.01775797942
 20
58111.173991014148
 30
0.0
 11
11247.01775797942
 21
58111.173991014199
 31
0.0
  0
ARC
  5
30D
  8
HONTAIGAIKEI
 10
11447.01775797942
 20
60601.173991014148
 30
0.0
 40
200.0
 50
90.0
 51
180.0
  0
ARC
  5
30E
  8
HONTAIGAIKEI
 10
11447.01775797942
 20
58111.173991014148
 30
0.0
 40
200.0
 50
180.0
 51
270.0
  0
LINE
  5
30F
  8
HONTAIGAIKEI
 10
11847.017757979371
 20
60851.173991014148
 30
0.0
 11
22117.017757979371
 21
60851.173991014148
 31
0.0
  0
LINE
  5
310
  8
HONTAIGAIKEI
 10
10387.01775797942
 20
60356.173991014148
 30
0.0
 11
11847.01775797936
 21
60356.173991014148
 31
0.0
  0
LINE
  5
311
  8
HONTAIGAIKEI
 10
11847.01775797936
 20
58356.173991014148
 30
0.0
 11
10387.017757979311
 21
58356.173991014148
 31
0.0
  0
LINE
  5
312
  8
HONTAIGAIKEI
 10
8587.0177579793672
 20
60148.44199502941
 30
0.0
 11
8587.0177579793672
 21
58563.90598699882
 31
0.0
  0
LINE
  5
313
  8
HONTAIGAIKEI
 10
10387.01775797936
 20
60356.173991014148
 30
0.0
 11
8718.6077189812495
 21
60263.48454440316
 31
0.0
  0
LINE
  5
314
  8
HONTAIGAIKEI
 10
10387.01775797936
 20
58356.173991014148
 30
0.0
 11
8718.6077189811913
 21
58448.863437625179
 31
0.0
  0
LINE
  5
315
  8
HONTAIGAIKEI
 10
8718.6077189811913
 20
60263.48454440316
 30
0.0
 11
8587.0177579793672
 21
60148.44199502941
 31
0.0
  0
LINE
  5
316
  8
HONTAIGAIKEI
 10
8718.6077189811913
 20
58448.863437625128
 30
0.0
 11
8587.0177579793672
 21
58563.90598699882
 31
0.0
  0
LINE
  5
317
  8
CENTER
 10
8897.0177579793672
 20
59994.654389892487
 30
0.0
 11
8897.0177579793672
 21
58718.991284330499
 31
0.0
  0
LINE
  5
318
  8
CENTER
 10
8253.9387739954655
 20
59356.17399101414
 30
0.0
 11
22667.767503526029
 21
59356.17399101414
 31
0.0
  0
LINE
  5
319
  8
HONTAIGAIKEI
 10
3587.0177579793672
 20
61408.746309040682
 30
0.0
 11
3587.0177579793672
 21
63298.746309040682
 31
0.0
  0
ARC
  5
31A
  8
HONTAIGAIKEI
 10
3887.0177579793672
 20
63298.746309040682
 30
0.0
 40
300.0
 50
90.0
 51
180.0
  0
ARC
  5
31B
  8
HONTAIGAIKEI
 10
3887.0177579793672
 20
61408.746309040682
 30
0.0
 40
300.0
 50
180.0
 51
270.0
  0
LINE
  5
31C
  8
HONTAIGAIKEI
 10
10605.665443456581
 20
61208.575184941968
 30
0.0
 11
10605.665443456581
 21
63498.917433139381
 31
0.0
  0
LINE
  5
31D
  8
HONTAIGAIKEI
 10
10501.06739354887
 20
63598.746309040682
 30
0.0
 11
10605.665443456581
 21
63498.91743313933
 31
0.0
  0
LINE
  5
31E
  8
HONTAIGAIKEI
 10
10501.06739354893
 20
61108.746309040682
 30
0.0
 11
10605.665443456581
 21
61208.575184941918
 31
0.0
  0
LINE
  5
31F
  8
CENTER
 10
9897.0177579793672
 20
63598.746309040689
 30
0.0
 11
9897.0177579793672
 21
61108.746309040689
 31
0.0
  0
LINE
  5
320
  8
CENTER
 10
8897.0177579793672
 20
62992.226707919021
 30
0.0
 11
8897.0177579793672
 21
61716.563602357033
 31
0.0
  0
LINE
  5
321
  8
CENTER
 10
8447.0177579793672
 20
63598.746309040682
 30
0.0
 11
8447.0177579793672
 21
61108.746309040682
 31
0.0
  0
LINE
  5
322
  8
HONTAIGAIKEI
 10
6028.3639118255523
 20
63598.746309040682
 30
0.0
 11
10501.06739354893
 21
63598.746309040682
 31
0.0
  0
LINE
  5
323
  8
HONTAIGAIKEI
 10
10501.06739354893
 20
61108.746309040682
 30
0.0
 11
6028.3639118255523
 21
61108.746309040682
 31
0.0
  0
LINE
  5
324
  8
HONTAIGAIKEI
 10
5928.3639118255523
 20
61208.746309040682
 30
0.0
 11
5928.3639118255523
 21
63498.746309040682
 31
0.0
  0
ARC
  5
325
  8
HONTAIGAIKEI
 10
5828.3639118255523
 20
63498.746309040682
 30
0.0
 40
100.0
 50
0.0
 51
90.0
  0
ARC
  5
326
  8
HONTAIGAIKEI
 10
5828.3639118255523
 20
61208.746309040682
 30
0.0
 40
100.0
 50
270.0
 51
0.0
  0
ARC
  5
327
  8
HONTAIGAIKEI
 10
6028.3639118255523
 20
63498.746309040682
 30
0.0
 40
100.0
 50
90.0
 51
180.0
  0
ARC
  5
328
  8
HONTAIGAIKEI
 10
6028.3639118255523
 20
61208.746309040682
 30
0.0
 40
100.0
 50
180.0
 51
270.0
  0
LINE
  5
329
  8
HONTAIGAIKEI
 10
3887.0177579793672
 20
63598.746309040682
 30
0.0
 11
5828.3639118255523
 21
63598.746309040682
 31
0.0
  0
LINE
  5
32A
  8
HONTAIGAIKEI
 10
3887.0177579793672
 20
61108.746309040682
 30
0.0
 11
5828.3639118255523
 21
61108.746309040682
 31
0.0
  0
LINE
  5
32B
  8
CENTER
 10
3204.5873124439681
 20
62353.746309040682
 30
0.0
 11
10942.88891523701
 21
62353.746309040682
 31
0.0
  0
LINE
  5
32C
  8
CENTER
 10
4997.0177579793672
 20
63598.746309040682
 30
0.0
 11
4997.0177579793672
 21
61108.746309040682
 31
0.0
  0
LINE
  5
32D
  8
CENTER
 10
19247.017757979389
 20
60851.17399101414
 30
0.0
 11
19247.017757979389
 21
57861.17399101414
 31
0.0
  0
ENDSEC
  0
EOF
