  0
SECTION
  2
HEADER
  9
$ACADVER
  1
AC1009
  9
$INSBASE
 10
9845.8699127585278
 20
81004.356248494296
 30
0.0
  9
$EXTMIN
 10
4673.4394672230701
 20
74276.898718627519
 30
0.0
  9
$EXTMAX
 10
21496.619658304709
 20
83804.370041413014
 30
0.0
  9
$LIMMIN
 10
0.0
 20
0.0
  9
$LIMMAX
 10
420.0
 20
297.0
  9
$ORTHOMODE
 70
     1
  9
$REGENMODE
 70
     1
  9
$FILLMODE
 70
     1
  9
$QTEXTMODE
 70
     0
  9
$MIRRTEXT
 70
     1
  9
$DRAGMODE
 70
     2
  9
$LTSCALE
 40
400.0
  9
$OSMODE
 70
    44
  9
$ATTMODE
 70
     1
  9
$TEXTSIZE
 40
2.5
  9
$TRACEWID
 40
1.0
  9
$TEXTSTYLE
  7
STANDARD
  9
$CLAYER
  8
SAIBU
  9
$CELTYPE
  6
BYLAYER
  9
$CECOLOR
 62
   256
  9
$DIMSCALE
 40
100.0
  9
$DIMASZ
 40
0.18
  9
$DIMEXO
 40
0.0625
  9
$DIMDLI
 40
0.38
  9
$DIMRND
 40
0.0
  9
$DIMDLE
 40
0.0
  9
$DIMEXE
 40
0.14
  9
$DIMTP
 40
0.0
  9
$DIMTM
 40
0.0
  9
$DIMTXT
 40
0.18
  9
$DIMCEN
 40
0.09
  9
$DIMTSZ
 40
0.0
  9
$DIMTOL
 70
     0
  9
$DIMLIM
 70
     0
  9
$DIMTIH
 70
     0
  9
$DIMTOH
 70
     0
  9
$DIMSE1
 70
     0
  9
$DIMSE2
 70
     0
  9
$DIMTAD
 70
     1
  9
$DIMZIN
 70
     0
  9
$DIMBLK
  1

  9
$DIMASO
 70
     1
  9
$DIMSHO
 70
     1
  9
$DIMPOST
  1

  9
$DIMAPOST
  1

  9
$DIMALT
 70
     0
  9
$DIMALTD
 70
     2
  9
$DIMALTF
 40
25.399999999999999
  9
$DIMLFAC
 40
1.0
  9
$DIMTOFL
 70
     1
  9
$DIMTVP
 40
0.0
  9
$DIMTIX
 70
     0
  9
$DIMSOXD
 70
     0
  9
$DIMSAH
 70
     0
  9
$DIMBLK1
  1

  9
$DIMBLK2
  1

  9
$DIMSTYLE
  2
STANDARD
  9
$DIMCLRD
 70
     0
  9
$DIMCLRE
 70
     0
  9
$DIMCLRT
 70
     0
  9
$DIMTFAC
 40
1.0
  9
$DIMGAP
 40
0.05
  9
$LUNITS
 70
     2
  9
$LUPREC
 70
     4
  9
$SKETCHINC
 40
1.0
  9
$FILLETRAD
 40
10.0
  9
$AUNITS
 70
     0
  9
$AUPREC
 70
     0
  9
$MENU
  1
.
  9
$ELEVATION
 40
0.0
  9
$PELEVATION
 40
0.0
  9
$THICKNESS
 40
0.0
  9
$LIMCHECK
 70
     0
  9
$BLIPMODE
 70
     0
  9
$CHAMFERA
 40
10.0
  9
$CHAMFERB
 40
10.0
  9
$SKPOLY
 70
     0
  9
$TDCREATE
 40
2454165.6815858218
  9
$TDUPDATE
 40
2455633.4850790282
  9
$TDINDWG
 40
0.2075560532
  9
$TDUSRTIMER
 40
0.2075560532
  9
$USRTIMER
 70
     1
  9
$ANGBASE
 50
0.0
  9
$ANGDIR
 70
     0
  9
$PDMODE
 70
     0
  9
$PDSIZE
 40
0.0
  9
$PLINEWID
 40
0.0
  9
$COORDS
 70
     0
  9
$SPLFRAME
 70
     0
  9
$SPLINETYPE
 70
     6
  9
$SPLINESEGS
 70
     8
  9
$ATTDIA
 70
     0
  9
$ATTREQ
 70
     1
  9
$HANDLING
 70
     1
  9
$HANDSEED
  5
6D8
  9
$SURFTAB1
 70
     6
  9
$SURFTAB2
 70
     6
  9
$SURFTYPE
 70
     6
  9
$SURFU
 70
     6
  9
$SURFV
 70
     6
  9
$UCSNAME
  2

  9
$UCSORG
 10
0.0
 20
0.0
 30
0.0
  9
$UCSXDIR
 10
1.0
 20
0.0
 30
0.0
  9
$UCSYDIR
 10
0.0
 20
1.0
 30
0.0
  9
$PUCSNAME
  2

  9
$PUCSORG
 10
0.0
 20
0.0
 30
0.0
  9
$PUCSXDIR
 10
1.0
 20
0.0
 30
0.0
  9
$PUCSYDIR
 10
0.0
 20
1.0
 30
0.0
  9
$USERI1
 70
     0
  9
$USERI2
 70
     0
  9
$USERI3
 70
     0
  9
$USERI4
 70
     0
  9
$USERI5
 70
     0
  9
$USERR1
 40
0.0
  9
$USERR2
 40
0.0
  9
$USERR3
 40
0.0
  9
$USERR4
 40
0.0
  9
$USERR5
 40
0.0
  9
$WORLDVIEW
 70
     1
  9
$SHADEDGE
 70
     3
  9
$SHADEDIF
 70
    70
  9
$TILEMODE
 70
     1
  9
$MAXACTVP
 70
    64
  9
$PLIMCHECK
 70
     0
  9
$PEXTMIN
 10
0.0
 20
0.0
 30
0.0
  9
$PEXTMAX
 10
0.0
 20
0.0
 30
0.0
  9
$PLIMMIN
 10
0.0
 20
0.0
  9
$PLIMMAX
 10
12.0
 20
9.0
  9
$UNITMODE
 70
     0
  9
$VISRETAIN
 70
     1
  9
$PLINEGEN
 70
     0
  9
$PSLTSCALE
 70
     1
  0
ENDSEC
  0
SECTION
  2
TABLES
  0
TABLE
  2
VPORT
 70
     3
  0
VPORT
  2
*ACTIVE
 70
     0
 10
0.0
 20
0.0
 11
1.0
 21
1.0
 12
12885.736897067431
 22
78966.410883466291
 13
0.0
 23
0.0
 14
10.0
 24
10.0
 15
10.0
 25
10.0
 16
0.0
 26
0.0
 36
1.0
 17
0.0
 27
0.0
 37
0.0
 40
11642.74723275038
 41
1.6793478260869561
 42
50.0
 43
0.0
 44
0.0
 50
0.0
 51
0.0
 71
     0
 72
   100
 73
     1
 74
     1
 75
     0
 76
     0
 77
     0
 78
     0
  0
ENDTAB
  0
TABLE
  2
LTYPE
 70
     2
  0
LTYPE
  2
CONTINUOUS
 70
     0
  3
Solid line
 72
    65
 73
     0
 40
0.0
  0
LTYPE
  2
CENTER
 70
     0
  3
____ _ ____ _ ____ _ ____ _ ____ _ ____ _ ____ 
 72
    65
 73
     4
 40
2.0
 49
1.25
 49
-0.25
 49
0.25
 49
-0.25
  0
ENDTAB
  0
TABLE
  2
LAYER
 70
     6
  0
LAYER
  2
0
 70
     0
 62
     7
  6
CONTINUOUS
  0
LAYER
  2
CENTER
 70
     0
 62
     6
  6
CENTER
  0
LAYER
  2
HONTAIGAIKEI
 70
     0
 62
     2
  6
CONTINUOUS
  0
LAYER
  2
DOUSEN
 70
     0
 62
     3
  6
CONTINUOUS
  0
LAYER
  2
HONTAI
 70
     0
 62
     2
  6
CONTINUOUS
  0
LAYER
  2
SAIBU
 70
     0
 62
     1
  6
CONTINUOUS
  0
ENDTAB
  0
TABLE
  2
STYLE
 70
     1
  0
STYLE
  2
STANDARD
 70
     0
 40
0.0
 41
1.0
 50
0.0
 71
     0
 42
2.5
  3
txt.shx
  4
extfont2.shx
  0
ENDTAB
  0
TABLE
  2
VIEW
 70
     0
  0
ENDTAB
  0
TABLE
  2
UCS
 70
     0
  0
ENDTAB
  0
TABLE
  2
APPID
 70
     6
  0
APPID
  2
ACAD
 70
     0
  0
APPID
  2
RAK
 70
     0
  0
APPID
  2
ACAD_DSTYLE_DIMJOGGED_JOGA
 70
     0
  0
APPID
  2
ACAD_DSTYLE_DIMEXT_ENABLED
 70
     0
  0
APPID
  2
ACAD_DSTYLE_DIMEXT_LENGTH
 70
     0
  0
APPID
  2
ACAD_DSTYLE_DIMARC_LENGTH_
 70
     0
  0
ENDTAB
  0
TABLE
  2
DIMSTYLE
 70
     1
  0
DIMSTYLE
  2
STANDARD
 70
     0
  3

  4

  5

  6

  7

 40
100.0
 41
0.18
 42
0.0625
 43
0.38
 44
0.14
 45
0.0
 46
0.0
 47
0.0
 48
0.0
140
0.18
141
0.09
142
0.0
143
25.399999999999999
144
1.0
145
0.0
146
1.0
147
0.05
 71
     0
 72
     0
 73
     0
 74
     0
 75
     0
 76
     0
 77
     1
 78
     0
170
     0
171
     2
172
     1
173
     0
174
     0
175
     0
176
     0
177
     0
178
     0
  0
ENDTAB
  0
ENDSEC
  0
SECTION
  2
BLOCKS
  0
BLOCK
  8
0
  2
$MODEL_SPACE
 70
     0
 10
0.0
 20
0.0
 30
0.0
  3
$MODEL_SPACE
  1

  0
ENDBLK
  5
C
  8
0
  0
BLOCK
 67
     1
  8
0
  2
$PAPER_SPACE
 70
     0
 10
0.0
 20
0.0
 30
0.0
  3
$PAPER_SPACE
  1

  0
ENDBLK
  5
11
 67
     1
  8
0
  0
ENDSEC
  0
SECTION
  2
ENTITIES
  0
LINE
  5
34
  8
DOUSEN
 62
     3
 10
4864.619746109237
 20
81004.356248494296
 30
0.0
 11
21325.86991275847
 21
81004.356248494296
 31
0.0
  0
LINE
  5
36
  8
HONTAI
 10
8955.8699127585278
 20
82304.356248494296
 30
0.0
 11
20945.869912758531
 21
82304.356248494296
 31
0.0
  0
LINE
  5
38
  8
HONTAI
 62
     2
 10
8955.8699127585278
 20
82504.356248494296
 30
0.0
 11
20945.869912758531
 21
82504.356248494296
 31
0.0
  0
LINE
  5
39
  8
SAIBU
 10
12325.86991275853
 20
82304.356248494296
 30
0.0
 11
12325.86991275853
 21
81854.356248494296
 31
0.0
  0
LINE
  5
3A
  8
HONTAI
 10
8955.8699127585278
 20
82504.356248494296
 30
0.0
 11
8955.8699127585278
 21
82484.356248494296
 31
0.0
  0
LINE
  5
3B
  8
HONTAI
 10
9035.8699127585278
 20
82484.356248494296
 30
0.0
 11
9035.8699127585278
 21
82324.356248494296
 31
0.0
  0
LINE
  5
3C
  8
HONTAI
 62
     2
 10
8955.8699127585278
 20
82484.356248494296
 30
0.0
 11
9035.8699127585278
 21
82484.356248494296
 31
0.0
  0
LINE
  5
3D
  8
HONTAI
 10
8955.8699127585278
 20
82324.356248494296
 30
0.0
 11
9035.8699127585278
 21
82324.356248494296
 31
0.0
  0
LINE
  5
3E
  8
HONTAI
 10
8955.8699127585278
 20
82324.356248494296
 30
0.0
 11
8955.8699127585278
 21
82304.356248494296
 31
0.0
  0
LINE
  5
3F
  8
SAIBU
 10
12300.86991275847
 20
82304.356248494296
 30
0.0
 11
12300.86991275847
 21
81854.356248494223
 31
0.0
  0
LINE
  5
40
  8
CENTER
 10
19445.869912758531
 20
80929.356248494238
 30
0.0
 11
19445.869912758459
 21
82179.356248494354
 31
0.0
  0
LINE
  5
43
  8
CENTER
 10
18195.869912758531
 20
80929.356248494238
 30
0.0
 11
18195.869912758531
 21
82179.356248494354
 31
0.0
  0
LINE
  5
44
  8
CENTER
 10
16945.869912758531
 20
80929.356248494238
 30
0.0
 11
16945.869912758459
 21
82179.356248494354
 31
0.0
  0
LINE
  5
45
  8
CENTER
 62
     6
 10
16320.86991275841
 20
81554.356248494296
 30
0.0
 11
17570.869912758531
 21
81554.356248494296
 31
0.0
  0
CIRCLE
  5
46
  8
HONTAI
 10
19445.869912758531
 20
81554.356248494296
 30
0.0
 40
550.0
  0
CIRCLE
  5
47
  8
HONTAI
 10
18195.869912758531
 20
81554.356248494296
 30
0.0
 40
550.0
  0
CIRCLE
  5
48
  8
HONTAI
 10
16945.86991275847
 20
81554.356248494296
 30
0.0
 40
550.0
  0
CIRCLE
  5
49
  8
SAIBU
 10
16945.86991275847
 20
81554.356248494296
 30
0.0
 40
280.0
  0
CIRCLE
  5
4A
  8
SAIBU
 10
18195.869912758531
 20
81554.356248494296
 30
0.0
 40
280.0
  0
CIRCLE
  5
4B
  8
SAIBU
 10
19445.869912758531
 20
81554.356248494296
 30
0.0
 40
280.0
  0
CIRCLE
  5
4C
  8
SAIBU
 10
16945.86991275847
 20
81554.356248494296
 30
0.0
 40
240.0
  0
CIRCLE
  5
4D
  8
SAIBU
 10
18195.869912758531
 20
81554.356248494296
 30
0.0
 40
240.0
  0
CIRCLE
  5
4E
  8
SAIBU
 10
19445.869912758531
 20
81554.356248494296
 30
0.0
 40
240.0
  0
LINE
  5
4F
  8
SAIBU
 10
11615.869912758521
 20
81354.356248494296
 30
0.0
 11
16065.815321803029
 21
81354.356248494296
 31
0.0
  0
LINE
  5
50
  8
SAIBU
 10
11656.01915174944
 20
81504.356248494296
 30
0.0
 11
12035.342402773031
 21
81504.356248494296
 31
0.0
  0
LINE
  5
51
  8
SAIBU
 10
11656.01915174944
 20
81654.356248494296
 30
0.0
 11
16025.66608281206
 21
81654.356248494296
 31
0.0
  0
LINE
  5
52
  8
SAIBU
 10
11656.01915174944
 20
81804.356248494296
 30
0.0
 11
14491.66638095013
 21
81804.356248494296
 31
0.0
  0
LINE
  5
53
  8
SAIBU
 10
11656.01915174944
 20
81404.356248494296
 30
0.0
 11
16025.66608281206
 21
81404.356248494296
 31
0.0
  0
LINE
  5
54
  8
SAIBU
 10
11656.01915174944
 20
81554.356248494296
 30
0.0
 11
12035.342402773031
 21
81554.356248494296
 31
0.0
  0
LINE
  5
55
  8
SAIBU
 10
11656.01915174944
 20
81704.356248494296
 30
0.0
 11
16065.815321803029
 21
81704.356248494296
 31
0.0
  0
LINE
  5
56
  8
SAIBU
 10
11615.869912758521
 20
81854.356248494223
 30
0.0
 11
14491.66638095013
 21
81854.356248494296
 31
0.0
  0
LINE
  5
57
  8
SAIBU
 10
17623.640400189732
 20
81710.623112516652
 30
0.0
 11
17623.640400189732
 21
81954.356248494296
 31
0.0
  0
LINE
  5
58
  8
SAIBU
 10
17518.099425327258
 20
81954.356248494296
 30
0.0
 11
17518.099425327258
 21
81710.623112516652
 31
0.0
  0
CIRCLE
  5
59
  8
SAIBU
 10
17570.869912758531
 20
81836.891900743067
 30
0.0
 40
30.0
  0
CIRCLE
  5
5A
  8
SAIBU
 10
17570.869912758531
 20
81620.87939918245
 30
0.0
 40
30.0
  0
LINE
  5
5B
  8
CENTER
 62
     6
 10
18820.86991275847
 20
81554.356248494296
 30
0.0
 11
20070.86991275859
 21
81554.356248494296
 31
0.0
  0
LINE
  5
5C
  8
CENTER
 62
     6
 10
17570.86991275847
 20
81554.356248494296
 30
0.0
 11
18820.869912758579
 21
81554.356248494296
 31
0.0
  0
ARC
  5
5D
  8
SAIBU
 10
9506.3589115570066
 20
82259.356248494296
 30
0.0
 40
10.0
 50
90.0
 51
180.0
  0
ARC
  5
5E
  8
SAIBU
 10
9475.9563571511535
 20
82294.356248494296
 30
0.0
 40
10.0
 50
90.0
 51
180.0
  0
ARC
  5
5F
  8
SAIBU
 10
10141.64205309207
 20
81734.111644530145
 30
0.0
 40
570.24460396406721
 50
68.715881405834722
 51
90.0
  0
ARC
  5
60
  8
SAIBU
 10
10141.64205309207
 20
81734.111644530145
 30
0.0
 40
535.24460396406721
 50
71.265171959538435
 51
90.0
  0
LINE
  5
61
  8
SAIBU
 10
9496.3589115570085
 20
82230.984171574877
 30
0.0
 11
9496.3589115570085
 21
82259.356248494296
 31
0.0
  0
LINE
  5
62
  8
SAIBU
 10
9465.9563571511553
 20
82230.984171574877
 30
0.0
 11
9496.3589115570085
 21
82230.984171574877
 31
0.0
  0
LINE
  5
63
  8
SAIBU
 10
9465.9563571511553
 20
82294.356248494296
 30
0.0
 11
9465.9563571511553
 21
82230.984171574877
 31
0.0
  0
LINE
  5
64
  8
SAIBU
 10
9506.3589115570066
 20
82269.356248494296
 30
0.0
 11
10141.64205309207
 21
82269.356248494296
 31
0.0
  0
LINE
  5
65
  8
HONTAI
 62
     2
 10
7197.1052607388701
 20
81684.356248494296
 30
0.0
 11
7197.1052607388701
 21
81526.395277525706
 31
0.0
  0
CIRCLE
  5
66
  8
HONTAI
 62
     2
 10
10060.869912758521
 20
81510.616144793734
 30
0.0
 40
51.367867353759912
  0
CIRCLE
  5
67
  8
SAIBU
 10
6214.8944302768796
 20
82436.494453789259
 30
0.0
 40
7.8711653509453754
  0
LINE
  5
68
  8
SAIBU
 10
6215.5693528632983
 20
82451.340155501559
 30
0.0
 11
6334.7475121957832
 21
82445.922019457736
 31
0.0
  0
LINE
  5
69
  8
SAIBU
 10
6334.7475121957832
 20
82427.066888120797
 30
0.0
 11
6215.5693528632983
 21
82421.648752076944
 31
0.0
  0
ARC
  5
6A
  8
SAIBU
 10
6214.8944302768796
 20
82436.494453789259
 30
0.0
 40
14.86103562435528
 50
87.396983466437078
 51
272.60301653356288
  0
ARC
  5
6B
  8
SAIBU
 10
6334.3189115726273
 20
82436.494453789259
 30
0.0
 40
9.4373032656512805
 50
272.60301653356288
 51
87.396983466437078
  0
ARC
  5
6C
  8
SAIBU
 10
6847.9751100334697
 20
82995.633949577168
 30
0.0
 40
30.0
 50
270.0
 51
7.0562393476099228
  0
ARC
  5
6D
  8
SAIBU
 10
6823.5006302956017
 20
83458.036102589394
 30
0.0
 40
30.0
 50
7.0562393476099228
 51
90.0
  0
ARC
  5
6E
  8
SAIBU
 10
6583.6193372261478
 20
82995.633949577168
 30
0.0
 40
30.0
 50
180.0
 51
270.0
  0
ARC
  5
6F
  8
SAIBU
 10
6583.6193372261478
 20
83458.036102589394
 30
0.0
 40
30.0
 50
90.0
 51
180.0
  0
LINE
  5
70
  8
SAIBU
 10
6853.2734118324579
 20
83461.721408486643
 30
0.0
 11
6877.7478915703259
 21
82999.319255474315
 31
0.0
  0
LINE
  5
71
  8
SAIBU
 10
6553.6193372261478
 20
83458.036102589394
 30
0.0
 11
6553.6193372261478
 21
82995.633949577168
 31
0.0
  0
LINE
  5
72
  8
SAIBU
 10
6583.6193372261478
 20
82965.633949577168
 30
0.0
 11
6847.9751100334697
 21
82965.633949577168
 31
0.0
  0
LINE
  5
73
  8
SAIBU
 10
6583.6193372261478
 20
83488.036102589394
 30
0.0
 11
6823.5006302956017
 21
83488.036102589394
 31
0.0
  0
ARC
  5
74
  8
SAIBU
 10
6265.8699127585278
 20
83462.498804004557
 30
0.0
 40
30.0
 50
0.0
 51
90.0
  0
ARC
  5
75
  8
SAIBU
 10
5936.9736280027428
 20
83462.498804004557
 30
0.0
 40
30.0
 50
90.0
 51
180.0
  0
LINE
  5
76
  8
SAIBU
 10
5956.9736280027419
 20
82889.676107971405
 30
0.0
 11
6245.8699127585278
 21
82889.676107971405
 31
0.0
  0
ARC
  5
77
  8
SAIBU
 10
5852.7731308473158
 20
83462.498804004557
 30
0.0
 40
30.0
 50
0.0
 51
90.0
  0
ARC
  5
78
  8
HONTAI
 62
     2
 10
5716.5040732742054
 20
83564.356248494296
 30
0.0
 40
50.0
 50
90.0
 51
117.7993814530705
  0
ARC
  5
79
  8
SAIBU
 10
5715.8550066182506
 20
83442.498804004572
 30
0.0
 40
50.0
 50
90.0
 51
161.5987610162214
  0
LINE
  5
7A
  8
SAIBU
 10
5936.9736280027428
 20
83492.498804004557
 30
0.0
 11
6265.8699127585278
 21
83492.498804004557
 31
0.0
  0
LINE
  5
7B
  8
SAIBU
 10
5882.7731308473158
 20
83462.498804004557
 30
0.0
 11
5882.7731308473158
 21
82939.676107971405
 31
0.0
  0
LINE
  5
7C
  8
SAIBU
 10
6295.8699127585278
 20
83462.498804004557
 30
0.0
 11
6295.8699127585278
 21
82939.676107971405
 31
0.0
  0
LINE
  5
7D
  8
SAIBU
 10
5906.9736280027419
 20
83462.498804004557
 30
0.0
 11
5906.9736280027419
 21
82939.676107971405
 31
0.0
  0
LINE
  5
7E
  8
SAIBU
 10
5715.8550066182506
 20
83492.498804004557
 30
0.0
 11
5852.7731308473158
 21
83492.498804004557
 31
0.0
  0
LINE
  5
7F
  8
HONTAI
 62
     2
 10
5111.0164142824942
 20
82807.937096457288
 30
0.0
 11
5080.7942564783152
 21
82663.678397779586
 31
0.0
  0
LINE
  5
80
  8
HONTAI
 62
     2
 10
5204.68252975418
 20
82904.356248494296
 30
0.0
 11
5111.0164142824942
 21
82807.937096457288
 31
0.0
  0
LINE
  5
81
  8
SAIBU
 10
5515.0042568464987
 20
83669.822120288329
 30
0.0
 11
5588.174442952848
 21
83644.675262453457
 31
0.0
  0
LINE
  5
82
  8
SAIBU
 10
5716.5040732742054
 20
83614.356248494296
 30
0.0
 11
6961.2553366039056
 21
83614.356248494296
 31
0.0
  0
LINE
  5
83
  8
HONTAI
 62
     2
 10
5514.0758202262814
 20
83678.94108314201
 30
0.0
 11
5204.68252975418
 21
82904.356248494296
 31
0.0
  0
LINE
  5
84
  8
HONTAI
 62
     2
 10
7197.1052607388701
 20
81684.356248494296
 30
0.0
 11
8776.9129670339171
 21
81684.356248494296
 31
0.0
  0
LINE
  5
85
  8
HONTAI
 62
     2
 10
7197.1052607388701
 20
81604.356248494296
 30
0.0
 11
8779.3930214383872
 21
81604.356248494296
 31
0.0
  0
ARC
  5
86
  8
HONTAI
 62
     2
 10
7281.26485214493
 20
82124.356248494296
 30
0.0
 40
30.0
 50
90.0
 51
180.0
  0
LINE
  5
87
  8
HONTAI
 62
     2
 10
7251.264852144931
 20
82094.356248494296
 30
0.0
 11
7729.3897080969191
 21
82094.356248494296
 31
0.0
  0
LINE
  5
88
  8
HONTAI
 62
     2
 10
7281.26485214493
 20
82154.356248494296
 30
0.0
 11
9252.7429411686026
 21
82154.356248494296
 31
0.0
  0
LINE
  5
89
  8
HONTAI
 62
     6
 10
10060.869912758521
 20
82161.421173284005
 30
0.0
 11
10060.869912758521
 21
80790.301979992946
 31
0.0
  0
LINE
  5
8A
  8
SAIBU
 10
9475.9563571511535
 20
82304.356248494296
 30
0.0
 11
10141.64205309207
 21
82304.356248494296
 31
0.0
  0
LINE
  5
8B
  8
CENTER
 10
10092.143140314491
 20
81539.356248494296
 30
0.0
 11
11329.596685202559
 21
81539.356248494296
 31
0.0
  0
LINE
  5
8C
  8
CENTER
  6
CENTER
 62
     6
 10
8792.1431403144961
 20
81539.356248494296
 30
0.0
 11
10029.596685202559
 21
81539.356248494296
 31
0.0
  0
LINE
  5
8D
  8
CENTER
 10
5837.1431403144961
 20
81539.356248494296
 30
0.0
 11
7074.1046684852327
 21
81539.356248494296
 31
0.0
  0
CIRCLE
  5
8E
  8
SAIBU
 10
10710.86991275853
 20
81539.356248494296
 30
0.0
 40
325.0
  0
CIRCLE
  5
8F
  8
SAIBU
 10
10710.86991275853
 20
81539.356248494296
 30
0.0
 40
290.0
  0
CIRCLE
  5
90
  8
SAIBU
 10
9410.8699127585278
 20
81539.356248494296
 30
0.0
 40
325.0
  0
CIRCLE
  5
91
  8
SAIBU
 10
9410.8699127585278
 20
81539.356248494296
 30
0.0
 40
290.0
  0
CIRCLE
  5
92
  8
SAIBU
 10
6455.8699127585287
 20
81539.356248494296
 30
0.0
 40
290.0
  0
CIRCLE
  5
93
  8
SAIBU
 10
6455.8699127585287
 20
81539.356248494296
 30
0.0
 40
325.0
  0
LINE
  5
94
  8
CENTER
  6
CONTINUOUS
 62
     6
 10
9845.8699127585278
 20
80783.477231688506
 30
0.0
 11
9845.8699127585278
 21
82654.848097824186
 31
0.0
  0
LINE
  5
95
  8
SAIBU
 10
5055.8699127585269
 20
82571.962710852094
 30
0.0
 11
5055.8699127585269
 21
82556.482354361797
 31
0.0
  0
LINE
  5
96
  8
HONTAI
 62
     2
 10
9410.8699127585278
 20
82134.531460686892
 30
0.0
 11
10710.86991275853
 21
82134.531460686892
 31
0.0
  0
LINE
  5
97
  8
HONTAI
 62
     2
 10
9410.8699127585278
 20
82174.356248494296
 30
0.0
 11
10710.86991275853
 21
82174.356248494296
 31
0.0
  0
LINE
  5
98
  8
SAIBU
 10
8933.5410113140824
 20
82094.356248494296
 30
0.0
 11
8933.5410113140824
 21
81958.196141219989
 31
0.0
  0
ARC
  5
99
  8
HONTAI
 62
     2
 10
10710.86991275853
 20
81523.376608233957
 30
0.0
 40
611.15485245293337
 50
1.969576970592168
 51
90.0
  0
ARC
  5
9A
  8
HONTAI
 62
     2
 10
10710.86991275853
 20
81539.252769889485
 30
0.0
 40
635.10347860478214
 50
0.4626735850394225
 51
90.0
  0
ARC
  5
9B
  8
HONTAI
 62
     2
 10
9410.8699127585278
 20
81539.252769889485
 30
0.0
 40
635.10347860478214
 50
90.0
 51
165.4025337469036
  0
ARC
  5
9C
  8
HONTAI
 62
     2
 10
9410.8699127585278
 20
81523.376608233957
 30
0.0
 40
611.15485245293337
 50
90.0
 51
170.03227817667039
  0
LINE
  5
9D
  8
HONTAI
 10
11321.66370539932
 20
81544.381287431286
 30
0.0
 11
11345.952684406189
 21
81544.381287431286
 31
0.0
  0
CIRCLE
  5
9E
  8
HONTAI
 62
     2
 10
10710.86991275853
 20
81539.356248494296
 30
0.0
 40
535.0
  0
CIRCLE
  5
9F
  8
HONTAI
 62
     2
 10
9410.8699127585278
 20
81539.356248494296
 30
0.0
 40
535.0
  0
CIRCLE
  5
A0
  8
HONTAI
 62
     2
 10
6455.8699127585287
 20
81539.356248494296
 30
0.0
 40
535.0
  0
LINE
  5
A1
  8
HONTAI
 62
     2
 10
8061.1059230489773
 20
81999.155184103583
 30
0.0
 11
8061.1059230489773
 21
81684.356248494296
 31
0.0
  0
ARC
  5
A2
  8
HONTAI
 62
     2
 10
8114.0313230489846
 20
81999.155184103583
 30
0.0
 40
52.92540000000001
 50
90.0
 51
180.0
  0
ARC
  5
A3
  8
HONTAI
 62
     2
 10
8738.3454161098925
 20
81999.155184103583
 30
0.0
 40
52.92540000000001
 50
0.0
 51
90.0
  0
LINE
  5
A4
  8
HONTAI
 62
     2
 10
8791.2708161098999
 20
81690.433168019343
 30
0.0
 11
8791.2708161098999
 21
81999.155184103583
 31
0.0
  0
POLYLINE
  5
A5
  8
SAIBU
 10
8612.0785923871463
 20
82111.199899748477
 30
0.0
 66
     1
 70
     8
  0
VERTEX
  8
SAIBU
  5
34A
 10
8612.08
 20
82111.2
 30
0.000000
  70
    32
  0
VERTEX
  8
SAIBU
  5
34B
 10
8612.03
 20
82112.3
 30
0.000000
  70
    32
  0
VERTEX
  8
SAIBU
  5
34C
 10
8611.88
 20
82113.3
 30
0.000000
  70
    32
  0
VERTEX
  8
SAIBU
  5
34D
 10
8611.63
 20
82114.3
 30
0.000000
  70
    32
  0
VERTEX
  8
SAIBU
  5
34E
 10
8611.28
 20
82115.4
 30
0.000000
  70
    32
  0
VERTEX
  8
SAIBU
  5
34F
 10
8610.84
 20
82116.4
 30
0.000000
  70
    32
  0
VERTEX
  8
SAIBU
  5
350
 10
8610.30
 20
82117.4
 30
0.000000
  70
    32
  0
VERTEX
  8
SAIBU
  5
351
 10
8609.66
 20
82118.4
 30
0.000000
  70
    32
  0
VERTEX
  8
SAIBU
  5
352
 10
8608.93
 20
82119.4
 30
0.000000
  70
    32
  0
VERTEX
  8
SAIBU
  5
353
 10
8608.11
 20
82120.4
 30
0.000000
  70
    32
  0
VERTEX
  8
SAIBU
  5
354
 10
8607.19
 20
82121.3
 30
0.000000
  70
    32
  0
VERTEX
  8
SAIBU
  5
355
 10
8606.19
 20
82122.2
 30
0.000000
  70
    32
  0
VERTEX
  8
SAIBU
  5
356
 10
8605.11
 20
82123.1
 30
0.000000
  70
    32
  0
VERTEX
  8
SAIBU
  5
357
 10
8603.94
 20
82124.0
 30
0.000000
  70
    32
  0
VERTEX
  8
SAIBU
  5
358
 10
8602.69
 20
82124.8
 30
0.000000
  70
    32
  0
VERTEX
  8
SAIBU
  5
359
 10
8601.36
 20
82125.6
 30
0.000000
  70
    32
  0
VERTEX
  8
SAIBU
  5
35A
 10
8599.96
 20
82126.4
 30
0.000000
  70
    32
  0
VERTEX
  8
SAIBU
  5
35B
 10
8598.49
 20
82127.1
 30
0.000000
  70
    32
  0
VERTEX
  8
SAIBU
  5
35C
 10
8596.95
 20
82127.8
 30
0.000000
  70
    32
  0
VERTEX
  8
SAIBU
  5
35D
 10
8595.35
 20
82128.4
 30
0.000000
  70
    32
  0
VERTEX
  8
SAIBU
  5
35E
 10
8593.69
 20
82129.0
 30
0.000000
  70
    32
  0
VERTEX
  8
SAIBU
  5
35F
 10
8591.98
 20
82129.6
 30
0.000000
  70
    32
  0
VERTEX
  8
SAIBU
  5
360
 10
8590.21
 20
82130.1
 30
0.000000
  70
    32
  0
VERTEX
  8
SAIBU
  5
361
 10
8588.40
 20
82130.6
 30
0.000000
  70
    32
  0
VERTEX
  8
SAIBU
  5
362
 10
8586.54
 20
82131.0
 30
0.000000
  70
    32
  0
VERTEX
  8
SAIBU
  5
363
 10
8584.64
 20
82131.4
 30
0.000000
  70
    32
  0
VERTEX
  8
SAIBU
  5
364
 10
8582.72
 20
82131.7
 30
0.000000
  70
    32
  0
VERTEX
  8
SAIBU
  5
365
 10
8580.76
 20
82132.0
 30
0.000000
  70
    32
  0
VERTEX
  8
SAIBU
  5
366
 10
8578.78
 20
82132.2
 30
0.000000
  70
    32
  0
VERTEX
  8
SAIBU
  5
367
 10
8576.78
 20
82132.4
 30
0.000000
  70
    32
  0
VERTEX
  8
SAIBU
  5
368
 10
8574.76
 20
82132.5
 30
0.000000
  70
    32
  0
VERTEX
  8
SAIBU
  5
369
 10
8572.74
 20
82132.6
 30
0.000000
  70
    32
  0
VERTEX
  8
SAIBU
  5
36A
 10
8570.71
 20
82132.7
 30
0.000000
  70
    32
  0
VERTEX
  8
SAIBU
  5
36B
 10
8568.68
 20
82132.6
 30
0.000000
  70
    32
  0
VERTEX
  8
SAIBU
  5
36C
 10
8566.65
 20
82132.5
 30
0.000000
  70
    32
  0
VERTEX
  8
SAIBU
  5
36D
 10
8564.64
 20
82132.4
 30
0.000000
  70
    32
  0
VERTEX
  8
SAIBU
  5
36E
 10
8562.64
 20
82132.2
 30
0.000000
  70
    32
  0
VERTEX
  8
SAIBU
  5
36F
 10
8560.66
 20
82132.0
 30
0.000000
  70
    32
  0
VERTEX
  8
SAIBU
  5
370
 10
8558.70
 20
82131.7
 30
0.000000
  70
    32
  0
VERTEX
  8
SAIBU
  5
371
 10
8556.77
 20
82131.4
 30
0.000000
  70
    32
  0
VERTEX
  8
SAIBU
  5
372
 10
8554.88
 20
82131.0
 30
0.000000
  70
    32
  0
VERTEX
  8
SAIBU
  5
373
 10
8553.02
 20
82130.6
 30
0.000000
  70
    32
  0
VERTEX
  8
SAIBU
  5
374
 10
8551.21
 20
82130.1
 30
0.000000
  70
    32
  0
VERTEX
  8
SAIBU
  5
375
 10
8549.44
 20
82129.6
 30
0.000000
  70
    32
  0
VERTEX
  8
SAIBU
  5
376
 10
8547.72
 20
82129.0
 30
0.000000
  70
    32
  0
VERTEX
  8
SAIBU
  5
377
 10
8546.06
 20
82128.4
 30
0.000000
  70
    32
  0
VERTEX
  8
SAIBU
  5
378
 10
8544.46
 20
82127.8
 30
0.000000
  70
    32
  0
VERTEX
  8
SAIBU
  5
379
 10
8542.92
 20
82127.1
 30
0.000000
  70
    32
  0
VERTEX
  8
SAIBU
  5
37A
 10
8541.45
 20
82126.4
 30
0.000000
  70
    32
  0
VERTEX
  8
SAIBU
  5
37B
 10
8540.05
 20
82125.6
 30
0.000000
  70
    32
  0
VERTEX
  8
SAIBU
  5
37C
 10
8538.73
 20
82124.8
 30
0.000000
  70
    32
  0
VERTEX
  8
SAIBU
  5
37D
 10
8537.48
 20
82124.0
 30
0.000000
  70
    32
  0
VERTEX
  8
SAIBU
  5
37E
 10
8536.31
 20
82123.1
 30
0.000000
  70
    32
  0
VERTEX
  8
SAIBU
  5
37F
 10
8535.22
 20
82122.2
 30
0.000000
  70
    32
  0
VERTEX
  8
SAIBU
  5
380
 10
8534.22
 20
82121.3
 30
0.000000
  70
    32
  0
VERTEX
  8
SAIBU
  5
381
 10
8533.31
 20
82120.4
 30
0.000000
  70
    32
  0
VERTEX
  8
SAIBU
  5
382
 10
8532.49
 20
82119.4
 30
0.000000
  70
    32
  0
VERTEX
  8
SAIBU
  5
383
 10
8531.75
 20
82118.4
 30
0.000000
  70
    32
  0
VERTEX
  8
SAIBU
  5
384
 10
8531.12
 20
82117.4
 30
0.000000
  70
    32
  0
VERTEX
  8
SAIBU
  5
385
 10
8530.58
 20
82116.4
 30
0.000000
  70
    32
  0
VERTEX
  8
SAIBU
  5
386
 10
8530.13
 20
82115.4
 30
0.000000
  70
    32
  0
VERTEX
  8
SAIBU
  5
387
 10
8529.78
 20
82114.3
 30
0.000000
  70
    32
  0
VERTEX
  8
SAIBU
  5
388
 10
8529.54
 20
82113.3
 30
0.000000
  70
    32
  0
VERTEX
  8
SAIBU
  5
389
 10
8529.39
 20
82112.3
 30
0.000000
  70
    32
  0
VERTEX
  8
SAIBU
  5
38A
 10
8529.34
 20
82111.2
 30
0.000000
  70
    32
  0
VERTEX
  8
SAIBU
  5
38B
 10
8529.39
 20
82110.1
 30
0.000000
  70
    32
  0
VERTEX
  8
SAIBU
  5
38C
 10
8529.54
 20
82109.1
 30
0.000000
  70
    32
  0
VERTEX
  8
SAIBU
  5
38D
 10
8529.78
 20
82108.1
 30
0.000000
  70
    32
  0
VERTEX
  8
SAIBU
  5
38E
 10
8530.13
 20
82107.0
 30
0.000000
  70
    32
  0
VERTEX
  8
SAIBU
  5
38F
 10
8530.58
 20
82106.0
 30
0.000000
  70
    32
  0
VERTEX
  8
SAIBU
  5
390
 10
8531.12
 20
82105.0
 30
0.000000
  70
    32
  0
VERTEX
  8
SAIBU
  5
391
 10
8531.75
 20
82104.0
 30
0.000000
  70
    32
  0
VERTEX
  8
SAIBU
  5
392
 10
8532.49
 20
82103.0
 30
0.000000
  70
    32
  0
VERTEX
  8
SAIBU
  5
393
 10
8533.31
 20
82102.0
 30
0.000000
  70
    32
  0
VERTEX
  8
SAIBU
  5
394
 10
8534.22
 20
82101.1
 30
0.000000
  70
    32
  0
VERTEX
  8
SAIBU
  5
395
 10
8535.22
 20
82100.2
 30
0.000000
  70
    32
  0
VERTEX
  8
SAIBU
  5
396
 10
8536.31
 20
82099.3
 30
0.000000
  70
    32
  0
VERTEX
  8
SAIBU
  5
397
 10
8537.48
 20
82098.4
 30
0.000000
  70
    32
  0
VERTEX
  8
SAIBU
  5
398
 10
8538.73
 20
82097.6
 30
0.000000
  70
    32
  0
VERTEX
  8
SAIBU
  5
399
 10
8540.05
 20
82096.8
 30
0.000000
  70
    32
  0
VERTEX
  8
SAIBU
  5
39A
 10
8541.45
 20
82096.0
 30
0.000000
  70
    32
  0
VERTEX
  8
SAIBU
  5
39B
 10
8542.92
 20
82095.3
 30
0.000000
  70
    32
  0
VERTEX
  8
SAIBU
  5
39C
 10
8544.46
 20
82094.6
 30
0.000000
  70
    32
  0
VERTEX
  8
SAIBU
  5
39D
 10
8546.06
 20
82094.0
 30
0.000000
  70
    32
  0
VERTEX
  8
SAIBU
  5
39E
 10
8547.72
 20
82093.4
 30
0.000000
  70
    32
  0
VERTEX
  8
SAIBU
  5
39F
 10
8549.44
 20
82092.8
 30
0.000000
  70
    32
  0
VERTEX
  8
SAIBU
  5
3A0
 10
8551.21
 20
82092.3
 30
0.000000
  70
    32
  0
VERTEX
  8
SAIBU
  5
3A1
 10
8553.02
 20
82091.8
 30
0.000000
  70
    32
  0
VERTEX
  8
SAIBU
  5
3A2
 10
8554.88
 20
82091.4
 30
0.000000
  70
    32
  0
VERTEX
  8
SAIBU
  5
3A3
 10
8556.77
 20
82091.0
 30
0.000000
  70
    32
  0
VERTEX
  8
SAIBU
  5
3A4
 10
8558.70
 20
82090.7
 30
0.000000
  70
    32
  0
VERTEX
  8
SAIBU
  5
3A5
 10
8560.66
 20
82090.4
 30
0.000000
  70
    32
  0
VERTEX
  8
SAIBU
  5
3A6
 10
8562.64
 20
82090.2
 30
0.000000
  70
    32
  0
VERTEX
  8
SAIBU
  5
3A7
 10
8564.64
 20
82090.0
 30
0.000000
  70
    32
  0
VERTEX
  8
SAIBU
  5
3A8
 10
8566.65
 20
82089.9
 30
0.000000
  70
    32
  0
VERTEX
  8
SAIBU
  5
3A9
 10
8568.68
 20
82089.8
 30
0.000000
  70
    32
  0
VERTEX
  8
SAIBU
  5
3AA
 10
8570.71
 20
82089.7
 30
0.000000
  70
    32
  0
VERTEX
  8
SAIBU
  5
3AB
 10
8572.74
 20
82089.8
 30
0.000000
  70
    32
  0
VERTEX
  8
SAIBU
  5
3AC
 10
8574.76
 20
82089.9
 30
0.000000
  70
    32
  0
VERTEX
  8
SAIBU
  5
3AD
 10
8576.78
 20
82090.0
 30
0.000000
  70
    32
  0
VERTEX
  8
SAIBU
  5
3AE
 10
8578.78
 20
82090.2
 30
0.000000
  70
    32
  0
VERTEX
  8
SAIBU
  5
3AF
 10
8580.76
 20
82090.4
 30
0.000000
  70
    32
  0
VERTEX
  8
SAIBU
  5
3B0
 10
8582.72
 20
82090.7
 30
0.000000
  70
    32
  0
VERTEX
  8
SAIBU
  5
3B1
 10
8584.64
 20
82091.0
 30
0.000000
  70
    32
  0
VERTEX
  8
SAIBU
  5
3B2
 10
8586.54
 20
82091.4
 30
0.000000
  70
    32
  0
VERTEX
  8
SAIBU
  5
3B3
 10
8588.40
 20
82091.8
 30
0.000000
  70
    32
  0
VERTEX
  8
SAIBU
  5
3B4
 10
8590.21
 20
82092.3
 30
0.000000
  70
    32
  0
VERTEX
  8
SAIBU
  5
3B5
 10
8591.98
 20
82092.8
 30
0.000000
  70
    32
  0
VERTEX
  8
SAIBU
  5
3B6
 10
8593.69
 20
82093.4
 30
0.000000
  70
    32
  0
VERTEX
  8
SAIBU
  5
3B7
 10
8595.35
 20
82094.0
 30
0.000000
  70
    32
  0
VERTEX
  8
SAIBU
  5
3B8
 10
8596.95
 20
82094.6
 30
0.000000
  70
    32
  0
VERTEX
  8
SAIBU
  5
3B9
 10
8598.49
 20
82095.3
 30
0.000000
  70
    32
  0
VERTEX
  8
SAIBU
  5
3BA
 10
8599.96
 20
82096.0
 30
0.000000
  70
    32
  0
VERTEX
  8
SAIBU
  5
3BB
 10
8601.36
 20
82096.8
 30
0.000000
  70
    32
  0
VERTEX
  8
SAIBU
  5
3BC
 10
8602.69
 20
82097.6
 30
0.000000
  70
    32
  0
VERTEX
  8
SAIBU
  5
3BD
 10
8603.94
 20
82098.4
 30
0.000000
  70
    32
  0
VERTEX
  8
SAIBU
  5
3BE
 10
8605.11
 20
82099.3
 30
0.000000
  70
    32
  0
VERTEX
  8
SAIBU
  5
3BF
 10
8606.19
 20
82100.2
 30
0.000000
  70
    32
  0
VERTEX
  8
SAIBU
  5
3C0
 10
8607.19
 20
82101.1
 30
0.000000
  70
    32
  0
VERTEX
  8
SAIBU
  5
3C1
 10
8608.11
 20
82102.0
 30
0.000000
  70
    32
  0
VERTEX
  8
SAIBU
  5
3C2
 10
8608.93
 20
82103.0
 30
0.000000
  70
    32
  0
VERTEX
  8
SAIBU
  5
3C3
 10
8609.66
 20
82104.0
 30
0.000000
  70
    32
  0
VERTEX
  8
SAIBU
  5
3C4
 10
8610.30
 20
82105.0
 30
0.000000
  70
    32
  0
VERTEX
  8
SAIBU
  5
3C5
 10
8610.84
 20
82106.0
 30
0.000000
  70
    32
  0
VERTEX
  8
SAIBU
  5
3C6
 10
8611.28
 20
82107.0
 30
0.000000
  70
    32
  0
VERTEX
  8
SAIBU
  5
3C7
 10
8611.63
 20
82108.1
 30
0.000000
  70
    32
  0
VERTEX
  8
SAIBU
  5
3C8
 10
8611.88
 20
82109.1
 30
0.000000
  70
    32
  0
VERTEX
  8
SAIBU
  5
3C9
 10
8612.03
 20
82110.1
 30
0.000000
  70
    32
  0
VERTEX
  8
SAIBU
  5
3CA
 10
8612.08
 20
82111.2
 30
0.000000
  70
    32
  0
SEQEND
  8
SAIBU
  5
3CB
  0
POLYLINE
  5
A6
  8
SAIBU
 10
8529.3363289110148
 20
82102.779672414239
 30
0.0
 66
     1
 70
     8
  0
VERTEX
  8
SAIBU
  5
3CC
 10
8529.34
 20
82102.8
 30
0.000000
  70
    32
  0
VERTEX
  8
SAIBU
  5
3CD
 10
8529.35
 20
82102.3
 30
0.000000
  70
    32
  0
VERTEX
  8
SAIBU
  5
3CE
 10
8529.39
 20
82101.7
 30
0.000000
  70
    32
  0
VERTEX
  8
SAIBU
  5
3CF
 10
8529.45
 20
82101.2
 30
0.000000
  70
    32
  0
VERTEX
  8
SAIBU
  5
3D0
 10
8529.54
 20
82100.7
 30
0.000000
  70
    32
  0
VERTEX
  8
SAIBU
  5
3D1
 10
8529.65
 20
82100.2
 30
0.000000
  70
    32
  0
VERTEX
  8
SAIBU
  5
3D2
 10
8529.78
 20
82099.6
 30
0.000000
  70
    32
  0
VERTEX
  8
SAIBU
  5
3D3
 10
8529.95
 20
82099.1
 30
0.000000
  70
    32
  0
VERTEX
  8
SAIBU
  5
3D4
 10
8530.13
 20
82098.6
 30
0.000000
  70
    32
  0
VERTEX
  8
SAIBU
  5
3D5
 10
8530.34
 20
82098.1
 30
0.000000
  70
    32
  0
VERTEX
  8
SAIBU
  5
3D6
 10
8530.58
 20
82097.6
 30
0.000000
  70
    32
  0
VERTEX
  8
SAIBU
  5
3D7
 10
8530.83
 20
82097.1
 30
0.000000
  70
    32
  0
VERTEX
  8
SAIBU
  5
3D8
 10
8531.12
 20
82096.6
 30
0.000000
  70
    32
  0
VERTEX
  8
SAIBU
  5
3D9
 10
8531.42
 20
82096.1
 30
0.000000
  70
    32
  0
VERTEX
  8
SAIBU
  5
3DA
 10
8531.75
 20
82095.6
 30
0.000000
  70
    32
  0
VERTEX
  8
SAIBU
  5
3DB
 10
8532.11
 20
82095.1
 30
0.000000
  70
    32
  0
VERTEX
  8
SAIBU
  5
3DC
 10
8532.49
 20
82094.6
 30
0.000000
  70
    32
  0
VERTEX
  8
SAIBU
  5
3DD
 10
8532.89
 20
82094.1
 30
0.000000
  70
    32
  0
VERTEX
  8
SAIBU
  5
3DE
 10
8533.31
 20
82093.6
 30
0.000000
  70
    32
  0
VERTEX
  8
SAIBU
  5
3DF
 10
8533.75
 20
82093.1
 30
0.000000
  70
    32
  0
VERTEX
  8
SAIBU
  5
3E0
 10
8534.22
 20
82092.7
 30
0.000000
  70
    32
  0
VERTEX
  8
SAIBU
  5
3E1
 10
8534.71
 20
82092.2
 30
0.000000
  70
    32
  0
VERTEX
  8
SAIBU
  5
3E2
 10
8535.22
 20
82091.8
 30
0.000000
  70
    32
  0
VERTEX
  8
SAIBU
  5
3E3
 10
8535.75
 20
82091.3
 30
0.000000
  70
    32
  0
VERTEX
  8
SAIBU
  5
3E4
 10
8536.31
 20
82090.9
 30
0.000000
  70
    32
  0
VERTEX
  8
SAIBU
  5
3E5
 10
8536.88
 20
82090.4
 30
0.000000
  70
    32
  0
VERTEX
  8
SAIBU
  5
3E6
 10
8537.48
 20
82090.0
 30
0.000000
  70
    32
  0
VERTEX
  8
SAIBU
  5
3E7
 10
8538.09
 20
82089.6
 30
0.000000
  70
    32
  0
VERTEX
  8
SAIBU
  5
3E8
 10
8538.73
 20
82089.2
 30
0.000000
  70
    32
  0
VERTEX
  8
SAIBU
  5
3E9
 10
8539.38
 20
82088.8
 30
0.000000
  70
    32
  0
VERTEX
  8
SAIBU
  5
3EA
 10
8540.05
 20
82088.4
 30
0.000000
  70
    32
  0
VERTEX
  8
SAIBU
  5
3EB
 10
8540.74
 20
82088.0
 30
0.000000
  70
    32
  0
VERTEX
  8
SAIBU
  5
3EC
 10
8541.45
 20
82087.6
 30
0.000000
  70
    32
  0
VERTEX
  8
SAIBU
  5
3ED
 10
8542.18
 20
82087.2
 30
0.000000
  70
    32
  0
VERTEX
  8
SAIBU
  5
3EE
 10
8542.92
 20
82086.9
 30
0.000000
  70
    32
  0
VERTEX
  8
SAIBU
  5
3EF
 10
8543.68
 20
82086.5
 30
0.000000
  70
    32
  0
VERTEX
  8
SAIBU
  5
3F0
 10
8544.46
 20
82086.2
 30
0.000000
  70
    32
  0
VERTEX
  8
SAIBU
  5
3F1
 10
8545.25
 20
82085.9
 30
0.000000
  70
    32
  0
VERTEX
  8
SAIBU
  5
3F2
 10
8546.06
 20
82085.5
 30
0.000000
  70
    32
  0
VERTEX
  8
SAIBU
  5
3F3
 10
8546.89
 20
82085.2
 30
0.000000
  70
    32
  0
VERTEX
  8
SAIBU
  5
3F4
 10
8547.72
 20
82084.9
 30
0.000000
  70
    32
  0
VERTEX
  8
SAIBU
  5
3F5
 10
8548.57
 20
82084.7
 30
0.000000
  70
    32
  0
VERTEX
  8
SAIBU
  5
3F6
 10
8549.44
 20
82084.4
 30
0.000000
  70
    32
  0
VERTEX
  8
SAIBU
  5
3F7
 10
8550.32
 20
82084.1
 30
0.000000
  70
    32
  0
VERTEX
  8
SAIBU
  5
3F8
 10
8551.21
 20
82083.9
 30
0.000000
  70
    32
  0
VERTEX
  8
SAIBU
  5
3F9
 10
8552.11
 20
82083.6
 30
0.000000
  70
    32
  0
VERTEX
  8
SAIBU
  5
3FA
 10
8553.02
 20
82083.4
 30
0.000000
  70
    32
  0
VERTEX
  8
SAIBU
  5
3FB
 10
8553.94
 20
82083.2
 30
0.000000
  70
    32
  0
VERTEX
  8
SAIBU
  5
3FC
 10
8554.88
 20
82083.0
 30
0.000000
  70
    32
  0
VERTEX
  8
SAIBU
  5
3FD
 10
8555.82
 20
82082.8
 30
0.000000
  70
    32
  0
VERTEX
  8
SAIBU
  5
3FE
 10
8556.77
 20
82082.6
 30
0.000000
  70
    32
  0
VERTEX
  8
SAIBU
  5
3FF
 10
8557.73
 20
82082.4
 30
0.000000
  70
    32
  0
VERTEX
  8
SAIBU
  5
400
 10
8558.70
 20
82082.3
 30
0.000000
  70
    32
  0
VERTEX
  8
SAIBU
  5
401
 10
8559.67
 20
82082.1
 30
0.000000
  70
    32
  0
VERTEX
  8
SAIBU
  5
402
 10
8560.66
 20
82082.0
 30
0.000000
  70
    32
  0
VERTEX
  8
SAIBU
  5
403
 10
8561.64
 20
82081.8
 30
0.000000
  70
    32
  0
VERTEX
  8
SAIBU
  5
404
 10
8562.64
 20
82081.7
 30
0.000000
  70
    32
  0
VERTEX
  8
SAIBU
  5
405
 10
8563.63
 20
82081.6
 30
0.000000
  70
    32
  0
VERTEX
  8
SAIBU
  5
406
 10
8564.64
 20
82081.6
 30
0.000000
  70
    32
  0
VERTEX
  8
SAIBU
  5
407
 10
8565.64
 20
82081.5
 30
0.000000
  70
    32
  0
VERTEX
  8
SAIBU
  5
408
 10
8566.65
 20
82081.4
 30
0.000000
  70
    32
  0
VERTEX
  8
SAIBU
  5
409
 10
8567.66
 20
82081.4
 30
0.000000
  70
    32
  0
VERTEX
  8
SAIBU
  5
40A
 10
8568.68
 20
82081.4
 30
0.000000
  70
    32
  0
VERTEX
  8
SAIBU
  5
40B
 10
8569.69
 20
82081.3
 30
0.000000
  70
    32
  0
VERTEX
  8
SAIBU
  5
40C
 10
8570.71
 20
82081.3
 30
0.000000
  70
    32
  0
VERTEX
  8
SAIBU
  5
40D
 10
8571.72
 20
82081.3
 30
0.000000
  70
    32
  0
VERTEX
  8
SAIBU
  5
40E
 10
8572.74
 20
82081.4
 30
0.000000
  70
    32
  0
VERTEX
  8
SAIBU
  5
40F
 10
8573.75
 20
82081.4
 30
0.000000
  70
    32
  0
VERTEX
  8
SAIBU
  5
410
 10
8574.76
 20
82081.4
 30
0.000000
  70
    32
  0
VERTEX
  8
SAIBU
  5
411
 10
8575.77
 20
82081.5
 30
0.000000
  70
    32
  0
VERTEX
  8
SAIBU
  5
412
 10
8576.78
 20
82081.6
 30
0.000000
  70
    32
  0
VERTEX
  8
SAIBU
  5
413
 10
8577.78
 20
82081.6
 30
0.000000
  70
    32
  0
VERTEX
  8
SAIBU
  5
414
 10
8578.78
 20
82081.7
 30
0.000000
  70
    32
  0
VERTEX
  8
SAIBU
  5
415
 10
8579.77
 20
82081.8
 30
0.000000
  70
    32
  0
VERTEX
  8
SAIBU
  5
416
 10
8580.76
 20
82082.0
 30
0.000000
  70
    32
  0
VERTEX
  8
SAIBU
  5
417
 10
8581.74
 20
82082.1
 30
0.000000
  70
    32
  0
VERTEX
  8
SAIBU
  5
418
 10
8582.72
 20
82082.3
 30
0.000000
  70
    32
  0
VERTEX
  8
SAIBU
  5
419
 10
8583.68
 20
82082.4
 30
0.000000
  70
    32
  0
VERTEX
  8
SAIBU
  5
41A
 10
8584.64
 20
82082.6
 30
0.000000
  70
    32
  0
VERTEX
  8
SAIBU
  5
41B
 10
8585.60
 20
82082.8
 30
0.000000
  70
    32
  0
VERTEX
  8
SAIBU
  5
41C
 10
8586.54
 20
82083.0
 30
0.000000
  70
    32
  0
VERTEX
  8
SAIBU
  5
41D
 10
8587.47
 20
82083.2
 30
0.000000
  70
    32
  0
VERTEX
  8
SAIBU
  5
41E
 10
8588.40
 20
82083.4
 30
0.000000
  70
    32
  0
VERTEX
  8
SAIBU
  5
41F
 10
8589.31
 20
82083.6
 30
0.000000
  70
    32
  0
VERTEX
  8
SAIBU
  5
420
 10
8590.21
 20
82083.9
 30
0.000000
  70
    32
  0
VERTEX
  8
SAIBU
  5
421
 10
8591.10
 20
82084.1
 30
0.000000
  70
    32
  0
VERTEX
  8
SAIBU
  5
422
 10
8591.98
 20
82084.4
 30
0.000000
  70
    32
  0
VERTEX
  8
SAIBU
  5
423
 10
8592.84
 20
82084.7
 30
0.000000
  70
    32
  0
VERTEX
  8
SAIBU
  5
424
 10
8593.69
 20
82084.9
 30
0.000000
  70
    32
  0
VERTEX
  8
SAIBU
  5
425
 10
8594.53
 20
82085.2
 30
0.000000
  70
    32
  0
VERTEX
  8
SAIBU
  5
426
 10
8595.35
 20
82085.5
 30
0.000000
  70
    32
  0
VERTEX
  8
SAIBU
  5
427
 10
8596.16
 20
82085.9
 30
0.000000
  70
    32
  0
VERTEX
  8
SAIBU
  5
428
 10
8596.95
 20
82086.2
 30
0.000000
  70
    32
  0
VERTEX
  8
SAIBU
  5
429
 10
8597.73
 20
82086.5
 30
0.000000
  70
    32
  0
VERTEX
  8
SAIBU
  5
42A
 10
8598.49
 20
82086.9
 30
0.000000
  70
    32
  0
VERTEX
  8
SAIBU
  5
42B
 10
8599.23
 20
82087.2
 30
0.000000
  70
    32
  0
VERTEX
  8
SAIBU
  5
42C
 10
8599.96
 20
82087.6
 30
0.000000
  70
    32
  0
VERTEX
  8
SAIBU
  5
42D
 10
8600.67
 20
82088.0
 30
0.000000
  70
    32
  0
VERTEX
  8
SAIBU
  5
42E
 10
8601.36
 20
82088.4
 30
0.000000
  70
    32
  0
VERTEX
  8
SAIBU
  5
42F
 10
8602.03
 20
82088.8
 30
0.000000
  70
    32
  0
VERTEX
  8
SAIBU
  5
430
 10
8602.69
 20
82089.2
 30
0.000000
  70
    32
  0
VERTEX
  8
SAIBU
  5
431
 10
8603.32
 20
82089.6
 30
0.000000
  70
    32
  0
VERTEX
  8
SAIBU
  5
432
 10
8603.94
 20
82090.0
 30
0.000000
  70
    32
  0
VERTEX
  8
SAIBU
  5
433
 10
8604.53
 20
82090.4
 30
0.000000
  70
    32
  0
VERTEX
  8
SAIBU
  5
434
 10
8605.11
 20
82090.9
 30
0.000000
  70
    32
  0
VERTEX
  8
SAIBU
  5
435
 10
8605.66
 20
82091.3
 30
0.000000
  70
    32
  0
VERTEX
  8
SAIBU
  5
436
 10
8606.19
 20
82091.8
 30
0.000000
  70
    32
  0
VERTEX
  8
SAIBU
  5
437
 10
8606.70
 20
82092.2
 30
0.000000
  70
    32
  0
VERTEX
  8
SAIBU
  5
438
 10
8607.19
 20
82092.7
 30
0.000000
  70
    32
  0
VERTEX
  8
SAIBU
  5
439
 10
8607.66
 20
82093.1
 30
0.000000
  70
    32
  0
VERTEX
  8
SAIBU
  5
43A
 10
8608.11
 20
82093.6
 30
0.000000
  70
    32
  0
VERTEX
  8
SAIBU
  5
43B
 10
8608.53
 20
82094.1
 30
0.000000
  70
    32
  0
VERTEX
  8
SAIBU
  5
43C
 10
8608.93
 20
82094.6
 30
0.000000
  70
    32
  0
VERTEX
  8
SAIBU
  5
43D
 10
8609.31
 20
82095.1
 30
0.000000
  70
    32
  0
VERTEX
  8
SAIBU
  5
43E
 10
8609.66
 20
82095.6
 30
0.000000
  70
    32
  0
VERTEX
  8
SAIBU
  5
43F
 10
8609.99
 20
82096.1
 30
0.000000
  70
    32
  0
VERTEX
  8
SAIBU
  5
440
 10
8610.30
 20
82096.6
 30
0.000000
  70
    32
  0
VERTEX
  8
SAIBU
  5
441
 10
8610.58
 20
82097.1
 30
0.000000
  70
    32
  0
VERTEX
  8
SAIBU
  5
442
 10
8610.84
 20
82097.6
 30
0.000000
  70
    32
  0
VERTEX
  8
SAIBU
  5
443
 10
8611.07
 20
82098.1
 30
0.000000
  70
    32
  0
VERTEX
  8
SAIBU
  5
444
 10
8611.28
 20
82098.6
 30
0.000000
  70
    32
  0
VERTEX
  8
SAIBU
  5
445
 10
8611.47
 20
82099.1
 30
0.000000
  70
    32
  0
VERTEX
  8
SAIBU
  5
446
 10
8611.63
 20
82099.6
 30
0.000000
  70
    32
  0
VERTEX
  8
SAIBU
  5
447
 10
8611.77
 20
82100.2
 30
0.000000
  70
    32
  0
VERTEX
  8
SAIBU
  5
448
 10
8611.88
 20
82100.7
 30
0.000000
  70
    32
  0
VERTEX
  8
SAIBU
  5
449
 10
8611.97
 20
82101.2
 30
0.000000
  70
    32
  0
VERTEX
  8
SAIBU
  5
44A
 10
8612.03
 20
82101.7
 30
0.000000
  70
    32
  0
VERTEX
  8
SAIBU
  5
44B
 10
8612.07
 20
82102.3
 30
0.000000
  70
    32
  0
VERTEX
  8
SAIBU
  5
44C
 10
8612.08
 20
82102.8
 30
0.000000
  70
    32
  0
SEQEND
  8
SAIBU
  5
44D
  0
LINE
  5
A7
  8
SAIBU
 10
8529.3363289110112
 20
82111.199899748477
 30
0.0
 11
8529.3363289110112
 21
82102.779672414239
 31
0.0
  0
LINE
  5
A8
  8
SAIBU
 10
8612.0785923871445
 20
82111.199899748477
 30
0.0
 11
8612.0785923871445
 21
82102.779672414239
 31
0.0
  0
POLYLINE
  5
A9
  8
SAIBU
 10
8546.5463078676639
 20
82052.080584103649
 30
0.0
 66
     1
 70
     8
  0
VERTEX
  8
SAIBU
  5
44E
 10
8546.55
 20
82052.1
 30
0.000000
  70
    32
  0
VERTEX
  8
SAIBU
  5
44F
 10
8546.55
 20
82051.8
 30
0.000000
  70
    32
  0
VERTEX
  8
SAIBU
  5
450
 10
8546.57
 20
82051.4
 30
0.000000
  70
    32
  0
VERTEX
  8
SAIBU
  5
451
 10
8546.61
 20
82051.1
 30
0.000000
  70
    32
  0
VERTEX
  8
SAIBU
  5
452
 10
8546.66
 20
82050.8
 30
0.000000
  70
    32
  0
VERTEX
  8
SAIBU
  5
453
 10
8546.72
 20
82050.4
 30
0.000000
  70
    32
  0
VERTEX
  8
SAIBU
  5
454
 10
8546.80
 20
82050.1
 30
0.000000
  70
    32
  0
VERTEX
  8
SAIBU
  5
455
 10
8546.90
 20
82049.8
 30
0.000000
  70
    32
  0
VERTEX
  8
SAIBU
  5
456
 10
8547.01
 20
82049.5
 30
0.000000
  70
    32
  0
VERTEX
  8
SAIBU
  5
457
 10
8547.13
 20
82049.1
 30
0.000000
  70
    32
  0
VERTEX
  8
SAIBU
  5
458
 10
8547.27
 20
82048.8
 30
0.000000
  70
    32
  0
VERTEX
  8
SAIBU
  5
459
 10
8547.43
 20
82048.5
 30
0.000000
  70
    32
  0
VERTEX
  8
SAIBU
  5
45A
 10
8547.60
 20
82048.2
 30
0.000000
  70
    32
  0
VERTEX
  8
SAIBU
  5
45B
 10
8547.78
 20
82047.9
 30
0.000000
  70
    32
  0
VERTEX
  8
SAIBU
  5
45C
 10
8547.98
 20
82047.6
 30
0.000000
  70
    32
  0
VERTEX
  8
SAIBU
  5
45D
 10
8548.19
 20
82047.2
 30
0.000000
  70
    32
  0
VERTEX
  8
SAIBU
  5
45E
 10
8548.41
 20
82046.9
 30
0.000000
  70
    32
  0
VERTEX
  8
SAIBU
  5
45F
 10
8548.65
 20
82046.6
 30
0.000000
  70
    32
  0
VERTEX
  8
SAIBU
  5
460
 10
8548.91
 20
82046.3
 30
0.000000
  70
    32
  0
VERTEX
  8
SAIBU
  5
461
 10
8549.17
 20
82046.0
 30
0.000000
  70
    32
  0
VERTEX
  8
SAIBU
  5
462
 10
8549.45
 20
82045.7
 30
0.000000
  70
    32
  0
VERTEX
  8
SAIBU
  5
463
 10
8549.75
 20
82045.5
 30
0.000000
  70
    32
  0
VERTEX
  8
SAIBU
  5
464
 10
8550.06
 20
82045.2
 30
0.000000
  70
    32
  0
VERTEX
  8
SAIBU
  5
465
 10
8550.38
 20
82044.9
 30
0.000000
  70
    32
  0
VERTEX
  8
SAIBU
  5
466
 10
8550.71
 20
82044.6
 30
0.000000
  70
    32
  0
VERTEX
  8
SAIBU
  5
467
 10
8551.05
 20
82044.3
 30
0.000000
  70
    32
  0
VERTEX
  8
SAIBU
  5
468
 10
8551.41
 20
82044.1
 30
0.000000
  70
    32
  0
VERTEX
  8
SAIBU
  5
469
 10
8551.78
 20
82043.8
 30
0.000000
  70
    32
  0
VERTEX
  8
SAIBU
  5
46A
 10
8552.16
 20
82043.5
 30
0.000000
  70
    32
  0
VERTEX
  8
SAIBU
  5
46B
 10
8552.56
 20
82043.3
 30
0.000000
  70
    32
  0
VERTEX
  8
SAIBU
  5
46C
 10
8552.96
 20
82043.0
 30
0.000000
  70
    32
  0
VERTEX
  8
SAIBU
  5
46D
 10
8553.38
 20
82042.8
 30
0.000000
  70
    32
  0
VERTEX
  8
SAIBU
  5
46E
 10
8553.80
 20
82042.6
 30
0.000000
  70
    32
  0
VERTEX
  8
SAIBU
  5
46F
 10
8554.24
 20
82042.3
 30
0.000000
  70
    32
  0
VERTEX
  8
SAIBU
  5
470
 10
8554.69
 20
82042.1
 30
0.000000
  70
    32
  0
VERTEX
  8
SAIBU
  5
471
 10
8555.15
 20
82041.9
 30
0.000000
  70
    32
  0
VERTEX
  8
SAIBU
  5
472
 10
8555.62
 20
82041.7
 30
0.000000
  70
    32
  0
VERTEX
  8
SAIBU
  5
473
 10
8556.09
 20
82041.5
 30
0.000000
  70
    32
  0
VERTEX
  8
SAIBU
  5
474
 10
8556.58
 20
82041.3
 30
0.000000
  70
    32
  0
VERTEX
  8
SAIBU
  5
475
 10
8557.08
 20
82041.1
 30
0.000000
  70
    32
  0
VERTEX
  8
SAIBU
  5
476
 10
8557.58
 20
82040.9
 30
0.000000
  70
    32
  0
VERTEX
  8
SAIBU
  5
477
 10
8558.10
 20
82040.7
 30
0.000000
  70
    32
  0
VERTEX
  8
SAIBU
  5
478
 10
8558.62
 20
82040.5
 30
0.000000
  70
    32
  0
VERTEX
  8
SAIBU
  5
479
 10
8559.15
 20
82040.4
 30
0.000000
  70
    32
  0
VERTEX
  8
SAIBU
  5
47A
 10
8559.68
 20
82040.2
 30
0.000000
  70
    32
  0
VERTEX
  8
SAIBU
  5
47B
 10
8560.22
 20
82040.1
 30
0.000000
  70
    32
  0
VERTEX
  8
SAIBU
  5
47C
 10
8560.78
 20
82039.9
 30
0.000000
  70
    32
  0
VERTEX
  8
SAIBU
  5
47D
 10
8561.33
 20
82039.8
 30
0.000000
  70
    32
  0
VERTEX
  8
SAIBU
  5
47E
 10
8561.89
 20
82039.6
 30
0.000000
  70
    32
  0
VERTEX
  8
SAIBU
  5
47F
 10
8562.46
 20
82039.5
 30
0.000000
  70
    32
  0
VERTEX
  8
SAIBU
  5
480
 10
8563.04
 20
82039.4
 30
0.000000
  70
    32
  0
VERTEX
  8
SAIBU
  5
481
 10
8563.62
 20
82039.3
 30
0.000000
  70
    32
  0
VERTEX
  8
SAIBU
  5
482
 10
8564.20
 20
82039.2
 30
0.000000
  70
    32
  0
VERTEX
  8
SAIBU
  5
483
 10
8564.79
 20
82039.1
 30
0.000000
  70
    32
  0
VERTEX
  8
SAIBU
  5
484
 10
8565.38
 20
82039.0
 30
0.000000
  70
    32
  0
VERTEX
  8
SAIBU
  5
485
 10
8565.98
 20
82038.9
 30
0.000000
  70
    32
  0
VERTEX
  8
SAIBU
  5
486
 10
8566.58
 20
82038.9
 30
0.000000
  70
    32
  0
VERTEX
  8
SAIBU
  5
487
 10
8567.18
 20
82038.8
 30
0.000000
  70
    32
  0
VERTEX
  8
SAIBU
  5
488
 10
8567.78
 20
82038.8
 30
0.000000
  70
    32
  0
VERTEX
  8
SAIBU
  5
489
 10
8568.39
 20
82038.7
 30
0.000000
  70
    32
  0
VERTEX
  8
SAIBU
  5
48A
 10
8569.00
 20
82038.7
 30
0.000000
  70
    32
  0
VERTEX
  8
SAIBU
  5
48B
 10
8569.61
 20
82038.7
 30
0.000000
  70
    32
  0
VERTEX
  8
SAIBU
  5
48C
 10
8570.22
 20
82038.6
 30
0.000000
  70
    32
  0
VERTEX
  8
SAIBU
  5
48D
 10
8570.83
 20
82038.6
 30
0.000000
  70
    32
  0
VERTEX
  8
SAIBU
  5
48E
 10
8571.45
 20
82038.6
 30
0.000000
  70
    32
  0
VERTEX
  8
SAIBU
  5
48F
 10
8572.06
 20
82038.6
 30
0.000000
  70
    32
  0
VERTEX
  8
SAIBU
  5
490
 10
8572.67
 20
82038.6
 30
0.000000
  70
    32
  0
VERTEX
  8
SAIBU
  5
491
 10
8573.28
 20
82038.7
 30
0.000000
  70
    32
  0
VERTEX
  8
SAIBU
  5
492
 10
8573.89
 20
82038.7
 30
0.000000
  70
    32
  0
VERTEX
  8
SAIBU
  5
493
 10
8574.50
 20
82038.7
 30
0.000000
  70
    32
  0
VERTEX
  8
SAIBU
  5
494
 10
8575.11
 20
82038.8
 30
0.000000
  70
    32
  0
VERTEX
  8
SAIBU
  5
495
 10
8575.71
 20
82038.8
 30
0.000000
  70
    32
  0
VERTEX
  8
SAIBU
  5
496
 10
8576.31
 20
82038.9
 30
0.000000
  70
    32
  0
VERTEX
  8
SAIBU
  5
497
 10
8576.91
 20
82038.9
 30
0.000000
  70
    32
  0
VERTEX
  8
SAIBU
  5
498
 10
8577.51
 20
82039.0
 30
0.000000
  70
    32
  0
VERTEX
  8
SAIBU
  5
499
 10
8578.10
 20
82039.1
 30
0.000000
  70
    32
  0
VERTEX
  8
SAIBU
  5
49A
 10
8578.69
 20
82039.2
 30
0.000000
  70
    32
  0
VERTEX
  8
SAIBU
  5
49B
 10
8579.27
 20
82039.3
 30
0.000000
  70
    32
  0
VERTEX
  8
SAIBU
  5
49C
 10
8579.85
 20
82039.4
 30
0.000000
  70
    32
  0
VERTEX
  8
SAIBU
  5
49D
 10
8580.43
 20
82039.5
 30
0.000000
  70
    32
  0
VERTEX
  8
SAIBU
  5
49E
 10
8581.00
 20
82039.6
 30
0.000000
  70
    32
  0
VERTEX
  8
SAIBU
  5
49F
 10
8581.56
 20
82039.8
 30
0.000000
  70
    32
  0
VERTEX
  8
SAIBU
  5
4A0
 10
8582.12
 20
82039.9
 30
0.000000
  70
    32
  0
VERTEX
  8
SAIBU
  5
4A1
 10
8582.67
 20
82040.1
 30
0.000000
  70
    32
  0
VERTEX
  8
SAIBU
  5
4A2
 10
8583.21
 20
82040.2
 30
0.000000
  70
    32
  0
VERTEX
  8
SAIBU
  5
4A3
 10
8583.75
 20
82040.4
 30
0.000000
  70
    32
  0
VERTEX
  8
SAIBU
  5
4A4
 10
8584.27
 20
82040.5
 30
0.000000
  70
    32
  0
VERTEX
  8
SAIBU
  5
4A5
 10
8584.80
 20
82040.7
 30
0.000000
  70
    32
  0
VERTEX
  8
SAIBU
  5
4A6
 10
8585.31
 20
82040.9
 30
0.000000
  70
    32
  0
VERTEX
  8
SAIBU
  5
4A7
 10
8585.81
 20
82041.1
 30
0.000000
  70
    32
  0
VERTEX
  8
SAIBU
  5
4A8
 10
8586.31
 20
82041.3
 30
0.000000
  70
    32
  0
VERTEX
  8
SAIBU
  5
4A9
 10
8586.80
 20
82041.5
 30
0.000000
  70
    32
  0
VERTEX
  8
SAIBU
  5
4AA
 10
8587.27
 20
82041.7
 30
0.000000
  70
    32
  0
VERTEX
  8
SAIBU
  5
4AB
 10
8587.74
 20
82041.9
 30
0.000000
  70
    32
  0
VERTEX
  8
SAIBU
  5
4AC
 10
8588.20
 20
82042.1
 30
0.000000
  70
    32
  0
VERTEX
  8
SAIBU
  5
4AD
 10
8588.65
 20
82042.3
 30
0.000000
  70
    32
  0
VERTEX
  8
SAIBU
  5
4AE
 10
8589.09
 20
82042.6
 30
0.000000
  70
    32
  0
VERTEX
  8
SAIBU
  5
4AF
 10
8589.51
 20
82042.8
 30
0.000000
  70
    32
  0
VERTEX
  8
SAIBU
  5
4B0
 10
8589.93
 20
82043.0
 30
0.000000
  70
    32
  0
VERTEX
  8
SAIBU
  5
4B1
 10
8590.33
 20
82043.3
 30
0.000000
  70
    32
  0
VERTEX
  8
SAIBU
  5
4B2
 10
8590.73
 20
82043.5
 30
0.000000
  70
    32
  0
VERTEX
  8
SAIBU
  5
4B3
 10
8591.11
 20
82043.8
 30
0.000000
  70
    32
  0
VERTEX
  8
SAIBU
  5
4B4
 10
8591.48
 20
82044.1
 30
0.000000
  70
    32
  0
VERTEX
  8
SAIBU
  5
4B5
 10
8591.84
 20
82044.3
 30
0.000000
  70
    32
  0
VERTEX
  8
SAIBU
  5
4B6
 10
8592.18
 20
82044.6
 30
0.000000
  70
    32
  0
VERTEX
  8
SAIBU
  5
4B7
 10
8592.51
 20
82044.9
 30
0.000000
  70
    32
  0
VERTEX
  8
SAIBU
  5
4B8
 10
8592.83
 20
82045.2
 30
0.000000
  70
    32
  0
VERTEX
  8
SAIBU
  5
4B9
 10
8593.14
 20
82045.5
 30
0.000000
  70
    32
  0
VERTEX
  8
SAIBU
  5
4BA
 10
8593.44
 20
82045.7
 30
0.000000
  70
    32
  0
VERTEX
  8
SAIBU
  5
4BB
 10
8593.72
 20
82046.0
 30
0.000000
  70
    32
  0
VERTEX
  8
SAIBU
  5
4BC
 10
8593.98
 20
82046.3
 30
0.000000
  70
    32
  0
VERTEX
  8
SAIBU
  5
4BD
 10
8594.24
 20
82046.6
 30
0.000000
  70
    32
  0
VERTEX
  8
SAIBU
  5
4BE
 10
8594.48
 20
82046.9
 30
0.000000
  70
    32
  0
VERTEX
  8
SAIBU
  5
4BF
 10
8594.70
 20
82047.2
 30
0.000000
  70
    32
  0
VERTEX
  8
SAIBU
  5
4C0
 10
8594.91
 20
82047.6
 30
0.000000
  70
    32
  0
VERTEX
  8
SAIBU
  5
4C1
 10
8595.11
 20
82047.9
 30
0.000000
  70
    32
  0
VERTEX
  8
SAIBU
  5
4C2
 10
8595.30
 20
82048.2
 30
0.000000
  70
    32
  0
VERTEX
  8
SAIBU
  5
4C3
 10
8595.46
 20
82048.5
 30
0.000000
  70
    32
  0
VERTEX
  8
SAIBU
  5
4C4
 10
8595.62
 20
82048.8
 30
0.000000
  70
    32
  0
VERTEX
  8
SAIBU
  5
4C5
 10
8595.76
 20
82049.1
 30
0.000000
  70
    32
  0
VERTEX
  8
SAIBU
  5
4C6
 10
8595.88
 20
82049.5
 30
0.000000
  70
    32
  0
VERTEX
  8
SAIBU
  5
4C7
 10
8595.99
 20
82049.8
 30
0.000000
  70
    32
  0
VERTEX
  8
SAIBU
  5
4C8
 10
8596.09
 20
82050.1
 30
0.000000
  70
    32
  0
VERTEX
  8
SAIBU
  5
4C9
 10
8596.17
 20
82050.4
 30
0.000000
  70
    32
  0
VERTEX
  8
SAIBU
  5
4CA
 10
8596.23
 20
82050.8
 30
0.000000
  70
    32
  0
VERTEX
  8
SAIBU
  5
4CB
 10
8596.28
 20
82051.1
 30
0.000000
  70
    32
  0
VERTEX
  8
SAIBU
  5
4CC
 10
8596.32
 20
82051.4
 30
0.000000
  70
    32
  0
VERTEX
  8
SAIBU
  5
4CD
 10
8596.34
 20
82051.8
 30
0.000000
  70
    32
  0
VERTEX
  8
SAIBU
  5
4CE
 10
8596.34
 20
82052.1
 30
0.000000
  70
    32
  0
SEQEND
  8
SAIBU
  5
4CF
  0
LINE
  5
AA
  8
HONTAI
 62
     2
 10
8596.3445134981284
 20
82052.080584103649
 30
0.0
 11
8738.3454161098925
 21
82052.080584103649
 31
0.0
  0
LINE
  5
AB
  8
SAIBU
 10
8546.5463078676839
 20
82052.080584103649
 30
0.0
 11
8546.5463078676839
 21
82085.366337903892
 31
0.0
  0
LINE
  5
AC
  8
SAIBU
 10
8596.3445134981284
 20
82052.080584103649
 30
0.0
 11
8596.3445134981284
 21
82085.943292896074
 31
0.0
  0
LINE
  5
AD
  8
SAIBU
 10
8147.2105386664607
 20
82052.080584103649
 30
0.0
 11
8147.2105386664607
 21
81684.356248494296
 31
0.0
  0
LINE
  5
AE
  8
SAIBU
 10
8181.6864689296935
 20
82052.080584103649
 30
0.0
 11
8181.6864689296935
 21
81684.356248494296
 31
0.0
  0
LINE
  5
AF
  8
SAIBU
 10
8724.1490351351094
 20
82052.080584103649
 30
0.0
 11
8724.1490351351094
 21
81684.356248494296
 31
0.0
  0
LINE
  5
B0
  8
SAIBU
 10
8689.6731048718793
 20
82052.080584103649
 30
0.0
 11
8689.6731048718793
 21
81684.356248494296
 31
0.0
  0
LINE
  5
B1
  8
HONTAI
 62
     2
 10
8114.0313230489846
 20
82052.080584103649
 30
0.0
 11
8546.5463078676839
 21
82052.080584103649
 31
0.0
  0
ARC
  5
B2
  8
HONTAI
 62
     2
 10
8779.3930214383872
 20
81634.356248494296
 30
0.0
 40
30.0
 50
270.0
 51
350.03227817667039
  0
ARC
  5
B3
  8
HONTAI
 62
     2
 10
8776.9129670339171
 20
81704.356248494296
 30
0.0
 40
20.0
 50
270.0
 51
345.40253374690371
  0
LINE
  5
B4
  8
HONTAI
 62
     2
 10
7310.7617590873269
 20
82052.080584103649
 30
0.0
 11
7743.2767439060271
 21
82052.080584103649
 31
0.0
  0
LINE
  5
B5
  8
SAIBU
 10
7886.4035409102207
 20
82052.080584103649
 30
0.0
 11
7886.4035409102207
 21
81684.356248494296
 31
0.0
  0
LINE
  5
B6
  8
SAIBU
 10
7920.8794711734508
 20
82052.080584103649
 30
0.0
 11
7920.8794711734508
 21
81684.356248494296
 31
0.0
  0
LINE
  5
B7
  8
SAIBU
 10
7378.4169049680359
 20
82052.080584103649
 30
0.0
 11
7378.4169049680359
 21
81684.356248494296
 31
0.0
  0
LINE
  5
B8
  8
SAIBU
 10
7343.9409747048039
 20
82052.080584103649
 30
0.0
 11
7343.9409747048039
 21
81684.356248494296
 31
0.0
  0
LINE
  5
B9
  8
SAIBU
 10
7793.0749495364716
 20
82052.080584103649
 30
0.0
 11
7793.0749495364716
 21
82085.943292896074
 31
0.0
  0
LINE
  5
BA
  8
SAIBU
 10
7743.2767439060271
 20
82052.080584103649
 30
0.0
 11
7743.2767439060271
 21
82085.366337903892
 31
0.0
  0
LINE
  5
BB
  8
HONTAI
 62
     2
 10
7793.0749495364716
 20
82052.080584103649
 30
0.0
 11
7935.0758521482339
 21
82052.080584103649
 31
0.0
  0
POLYLINE
  5
BC
  8
SAIBU
 10
7743.2767439060062
 20
82052.080584103649
 30
0.0
 66
     1
 70
     8
  0
VERTEX
  8
SAIBU
  5
4D0
 10
7743.28
 20
82052.1
 30
0.000000
  70
    32
  0
VERTEX
  8
SAIBU
  5
4D1
 10
7743.28
 20
82051.8
 30
0.000000
  70
    32
  0
VERTEX
  8
SAIBU
  5
4D2
 10
7743.30
 20
82051.4
 30
0.000000
  70
    32
  0
VERTEX
  8
SAIBU
  5
4D3
 10
7743.34
 20
82051.1
 30
0.000000
  70
    32
  0
VERTEX
  8
SAIBU
  5
4D4
 10
7743.39
 20
82050.8
 30
0.000000
  70
    32
  0
VERTEX
  8
SAIBU
  5
4D5
 10
7743.45
 20
82050.4
 30
0.000000
  70
    32
  0
VERTEX
  8
SAIBU
  5
4D6
 10
7743.53
 20
82050.1
 30
0.000000
  70
    32
  0
VERTEX
  8
SAIBU
  5
4D7
 10
7743.63
 20
82049.8
 30
0.000000
  70
    32
  0
VERTEX
  8
SAIBU
  5
4D8
 10
7743.74
 20
82049.5
 30
0.000000
  70
    32
  0
VERTEX
  8
SAIBU
  5
4D9
 10
7743.86
 20
82049.1
 30
0.000000
  70
    32
  0
VERTEX
  8
SAIBU
  5
4DA
 10
7744.00
 20
82048.8
 30
0.000000
  70
    32
  0
VERTEX
  8
SAIBU
  5
4DB
 10
7744.16
 20
82048.5
 30
0.000000
  70
    32
  0
VERTEX
  8
SAIBU
  5
4DC
 10
7744.33
 20
82048.2
 30
0.000000
  70
    32
  0
VERTEX
  8
SAIBU
  5
4DD
 10
7744.51
 20
82047.9
 30
0.000000
  70
    32
  0
VERTEX
  8
SAIBU
  5
4DE
 10
7744.71
 20
82047.6
 30
0.000000
  70
    32
  0
VERTEX
  8
SAIBU
  5
4DF
 10
7744.92
 20
82047.2
 30
0.000000
  70
    32
  0
VERTEX
  8
SAIBU
  5
4E0
 10
7745.14
 20
82046.9
 30
0.000000
  70
    32
  0
VERTEX
  8
SAIBU
  5
4E1
 10
7745.38
 20
82046.6
 30
0.000000
  70
    32
  0
VERTEX
  8
SAIBU
  5
4E2
 10
7745.64
 20
82046.3
 30
0.000000
  70
    32
  0
VERTEX
  8
SAIBU
  5
4E3
 10
7745.90
 20
82046.0
 30
0.000000
  70
    32
  0
VERTEX
  8
SAIBU
  5
4E4
 10
7746.19
 20
82045.7
 30
0.000000
  70
    32
  0
VERTEX
  8
SAIBU
  5
4E5
 10
7746.48
 20
82045.5
 30
0.000000
  70
    32
  0
VERTEX
  8
SAIBU
  5
4E6
 10
7746.79
 20
82045.2
 30
0.000000
  70
    32
  0
VERTEX
  8
SAIBU
  5
4E7
 10
7747.11
 20
82044.9
 30
0.000000
  70
    32
  0
VERTEX
  8
SAIBU
  5
4E8
 10
7747.44
 20
82044.6
 30
0.000000
  70
    32
  0
VERTEX
  8
SAIBU
  5
4E9
 10
7747.78
 20
82044.3
 30
0.000000
  70
    32
  0
VERTEX
  8
SAIBU
  5
4EA
 10
7748.14
 20
82044.1
 30
0.000000
  70
    32
  0
VERTEX
  8
SAIBU
  5
4EB
 10
7748.51
 20
82043.8
 30
0.000000
  70
    32
  0
VERTEX
  8
SAIBU
  5
4EC
 10
7748.89
 20
82043.5
 30
0.000000
  70
    32
  0
VERTEX
  8
SAIBU
  5
4ED
 10
7749.29
 20
82043.3
 30
0.000000
  70
    32
  0
VERTEX
  8
SAIBU
  5
4EE
 10
7749.69
 20
82043.0
 30
0.000000
  70
    32
  0
VERTEX
  8
SAIBU
  5
4EF
 10
7750.11
 20
82042.8
 30
0.000000
  70
    32
  0
VERTEX
  8
SAIBU
  5
4F0
 10
7750.54
 20
82042.6
 30
0.000000
  70
    32
  0
VERTEX
  8
SAIBU
  5
4F1
 10
7750.97
 20
82042.3
 30
0.000000
  70
    32
  0
VERTEX
  8
SAIBU
  5
4F2
 10
7751.42
 20
82042.1
 30
0.000000
  70
    32
  0
VERTEX
  8
SAIBU
  5
4F3
 10
7751.88
 20
82041.9
 30
0.000000
  70
    32
  0
VERTEX
  8
SAIBU
  5
4F4
 10
7752.35
 20
82041.7
 30
0.000000
  70
    32
  0
VERTEX
  8
SAIBU
  5
4F5
 10
7752.82
 20
82041.5
 30
0.000000
  70
    32
  0
VERTEX
  8
SAIBU
  5
4F6
 10
7753.31
 20
82041.3
 30
0.000000
  70
    32
  0
VERTEX
  8
SAIBU
  5
4F7
 10
7753.81
 20
82041.1
 30
0.000000
  70
    32
  0
VERTEX
  8
SAIBU
  5
4F8
 10
7754.31
 20
82040.9
 30
0.000000
  70
    32
  0
VERTEX
  8
SAIBU
  5
4F9
 10
7754.83
 20
82040.7
 30
0.000000
  70
    32
  0
VERTEX
  8
SAIBU
  5
4FA
 10
7755.35
 20
82040.5
 30
0.000000
  70
    32
  0
VERTEX
  8
SAIBU
  5
4FB
 10
7755.88
 20
82040.4
 30
0.000000
  70
    32
  0
VERTEX
  8
SAIBU
  5
4FC
 10
7756.41
 20
82040.2
 30
0.000000
  70
    32
  0
VERTEX
  8
SAIBU
  5
4FD
 10
7756.96
 20
82040.1
 30
0.000000
  70
    32
  0
VERTEX
  8
SAIBU
  5
4FE
 10
7757.51
 20
82039.9
 30
0.000000
  70
    32
  0
VERTEX
  8
SAIBU
  5
4FF
 10
7758.06
 20
82039.8
 30
0.000000
  70
    32
  0
VERTEX
  8
SAIBU
  5
500
 10
7758.63
 20
82039.6
 30
0.000000
  70
    32
  0
VERTEX
  8
SAIBU
  5
501
 10
7759.19
 20
82039.5
 30
0.000000
  70
    32
  0
VERTEX
  8
SAIBU
  5
502
 10
7759.77
 20
82039.4
 30
0.000000
  70
    32
  0
VERTEX
  8
SAIBU
  5
503
 10
7760.35
 20
82039.3
 30
0.000000
  70
    32
  0
VERTEX
  8
SAIBU
  5
504
 10
7760.93
 20
82039.2
 30
0.000000
  70
    32
  0
VERTEX
  8
SAIBU
  5
505
 10
7761.52
 20
82039.1
 30
0.000000
  70
    32
  0
VERTEX
  8
SAIBU
  5
506
 10
7762.11
 20
82039.0
 30
0.000000
  70
    32
  0
VERTEX
  8
SAIBU
  5
507
 10
7762.71
 20
82038.9
 30
0.000000
  70
    32
  0
VERTEX
  8
SAIBU
  5
508
 10
7763.31
 20
82038.9
 30
0.000000
  70
    32
  0
VERTEX
  8
SAIBU
  5
509
 10
7763.91
 20
82038.8
 30
0.000000
  70
    32
  0
VERTEX
  8
SAIBU
  5
50A
 10
7764.51
 20
82038.8
 30
0.000000
  70
    32
  0
VERTEX
  8
SAIBU
  5
50B
 10
7765.12
 20
82038.7
 30
0.000000
  70
    32
  0
VERTEX
  8
SAIBU
  5
50C
 10
7765.73
 20
82038.7
 30
0.000000
  70
    32
  0
VERTEX
  8
SAIBU
  5
50D
 10
7766.34
 20
82038.7
 30
0.000000
  70
    32
  0
VERTEX
  8
SAIBU
  5
50E
 10
7766.95
 20
82038.6
 30
0.000000
  70
    32
  0
VERTEX
  8
SAIBU
  5
50F
 10
7767.56
 20
82038.6
 30
0.000000
  70
    32
  0
VERTEX
  8
SAIBU
  5
510
 10
7768.18
 20
82038.6
 30
0.000000
  70
    32
  0
VERTEX
  8
SAIBU
  5
511
 10
7768.79
 20
82038.6
 30
0.000000
  70
    32
  0
VERTEX
  8
SAIBU
  5
512
 10
7769.40
 20
82038.6
 30
0.000000
  70
    32
  0
VERTEX
  8
SAIBU
  5
513
 10
7770.01
 20
82038.7
 30
0.000000
  70
    32
  0
VERTEX
  8
SAIBU
  5
514
 10
7770.62
 20
82038.7
 30
0.000000
  70
    32
  0
VERTEX
  8
SAIBU
  5
515
 10
7771.23
 20
82038.7
 30
0.000000
  70
    32
  0
VERTEX
  8
SAIBU
  5
516
 10
7771.84
 20
82038.8
 30
0.000000
  70
    32
  0
VERTEX
  8
SAIBU
  5
517
 10
7772.44
 20
82038.8
 30
0.000000
  70
    32
  0
VERTEX
  8
SAIBU
  5
518
 10
7773.05
 20
82038.9
 30
0.000000
  70
    32
  0
VERTEX
  8
SAIBU
  5
519
 10
7773.64
 20
82038.9
 30
0.000000
  70
    32
  0
VERTEX
  8
SAIBU
  5
51A
 10
7774.24
 20
82039.0
 30
0.000000
  70
    32
  0
VERTEX
  8
SAIBU
  5
51B
 10
7774.83
 20
82039.1
 30
0.000000
  70
    32
  0
VERTEX
  8
SAIBU
  5
51C
 10
7775.42
 20
82039.2
 30
0.000000
  70
    32
  0
VERTEX
  8
SAIBU
  5
51D
 10
7776.00
 20
82039.3
 30
0.000000
  70
    32
  0
VERTEX
  8
SAIBU
  5
51E
 10
7776.58
 20
82039.4
 30
0.000000
  70
    32
  0
VERTEX
  8
SAIBU
  5
51F
 10
7777.16
 20
82039.5
 30
0.000000
  70
    32
  0
VERTEX
  8
SAIBU
  5
520
 10
7777.73
 20
82039.6
 30
0.000000
  70
    32
  0
VERTEX
  8
SAIBU
  5
521
 10
7778.29
 20
82039.8
 30
0.000000
  70
    32
  0
VERTEX
  8
SAIBU
  5
522
 10
7778.85
 20
82039.9
 30
0.000000
  70
    32
  0
VERTEX
  8
SAIBU
  5
523
 10
7779.40
 20
82040.1
 30
0.000000
  70
    32
  0
VERTEX
  8
SAIBU
  5
524
 10
7779.94
 20
82040.2
 30
0.000000
  70
    32
  0
VERTEX
  8
SAIBU
  5
525
 10
7780.48
 20
82040.4
 30
0.000000
  70
    32
  0
VERTEX
  8
SAIBU
  5
526
 10
7781.01
 20
82040.5
 30
0.000000
  70
    32
  0
VERTEX
  8
SAIBU
  5
527
 10
7781.53
 20
82040.7
 30
0.000000
  70
    32
  0
VERTEX
  8
SAIBU
  5
528
 10
7782.04
 20
82040.9
 30
0.000000
  70
    32
  0
VERTEX
  8
SAIBU
  5
529
 10
7782.54
 20
82041.1
 30
0.000000
  70
    32
  0
VERTEX
  8
SAIBU
  5
52A
 10
7783.04
 20
82041.3
 30
0.000000
  70
    32
  0
VERTEX
  8
SAIBU
  5
52B
 10
7783.53
 20
82041.5
 30
0.000000
  70
    32
  0
VERTEX
  8
SAIBU
  5
52C
 10
7784.00
 20
82041.7
 30
0.000000
  70
    32
  0
VERTEX
  8
SAIBU
  5
52D
 10
7784.47
 20
82041.9
 30
0.000000
  70
    32
  0
VERTEX
  8
SAIBU
  5
52E
 10
7784.93
 20
82042.1
 30
0.000000
  70
    32
  0
VERTEX
  8
SAIBU
  5
52F
 10
7785.38
 20
82042.3
 30
0.000000
  70
    32
  0
VERTEX
  8
SAIBU
  5
530
 10
7785.82
 20
82042.6
 30
0.000000
  70
    32
  0
VERTEX
  8
SAIBU
  5
531
 10
7786.24
 20
82042.8
 30
0.000000
  70
    32
  0
VERTEX
  8
SAIBU
  5
532
 10
7786.66
 20
82043.0
 30
0.000000
  70
    32
  0
VERTEX
  8
SAIBU
  5
533
 10
7787.06
 20
82043.3
 30
0.000000
  70
    32
  0
VERTEX
  8
SAIBU
  5
534
 10
7787.46
 20
82043.5
 30
0.000000
  70
    32
  0
VERTEX
  8
SAIBU
  5
535
 10
7787.84
 20
82043.8
 30
0.000000
  70
    32
  0
VERTEX
  8
SAIBU
  5
536
 10
7788.21
 20
82044.1
 30
0.000000
  70
    32
  0
VERTEX
  8
SAIBU
  5
537
 10
7788.57
 20
82044.3
 30
0.000000
  70
    32
  0
VERTEX
  8
SAIBU
  5
538
 10
7788.91
 20
82044.6
 30
0.000000
  70
    32
  0
VERTEX
  8
SAIBU
  5
539
 10
7789.25
 20
82044.9
 30
0.000000
  70
    32
  0
VERTEX
  8
SAIBU
  5
53A
 10
7789.57
 20
82045.2
 30
0.000000
  70
    32
  0
VERTEX
  8
SAIBU
  5
53B
 10
7789.87
 20
82045.5
 30
0.000000
  70
    32
  0
VERTEX
  8
SAIBU
  5
53C
 10
7790.17
 20
82045.7
 30
0.000000
  70
    32
  0
VERTEX
  8
SAIBU
  5
53D
 10
7790.45
 20
82046.0
 30
0.000000
  70
    32
  0
VERTEX
  8
SAIBU
  5
53E
 10
7790.71
 20
82046.3
 30
0.000000
  70
    32
  0
VERTEX
  8
SAIBU
  5
53F
 10
7790.97
 20
82046.6
 30
0.000000
  70
    32
  0
VERTEX
  8
SAIBU
  5
540
 10
7791.21
 20
82046.9
 30
0.000000
  70
    32
  0
VERTEX
  8
SAIBU
  5
541
 10
7791.43
 20
82047.2
 30
0.000000
  70
    32
  0
VERTEX
  8
SAIBU
  5
542
 10
7791.64
 20
82047.6
 30
0.000000
  70
    32
  0
VERTEX
  8
SAIBU
  5
543
 10
7791.84
 20
82047.9
 30
0.000000
  70
    32
  0
VERTEX
  8
SAIBU
  5
544
 10
7792.03
 20
82048.2
 30
0.000000
  70
    32
  0
VERTEX
  8
SAIBU
  5
545
 10
7792.19
 20
82048.5
 30
0.000000
  70
    32
  0
VERTEX
  8
SAIBU
  5
546
 10
7792.35
 20
82048.8
 30
0.000000
  70
    32
  0
VERTEX
  8
SAIBU
  5
547
 10
7792.49
 20
82049.1
 30
0.000000
  70
    32
  0
VERTEX
  8
SAIBU
  5
548
 10
7792.61
 20
82049.5
 30
0.000000
  70
    32
  0
VERTEX
  8
SAIBU
  5
549
 10
7792.72
 20
82049.8
 30
0.000000
  70
    32
  0
VERTEX
  8
SAIBU
  5
54A
 10
7792.82
 20
82050.1
 30
0.000000
  70
    32
  0
VERTEX
  8
SAIBU
  5
54B
 10
7792.90
 20
82050.4
 30
0.000000
  70
    32
  0
VERTEX
  8
SAIBU
  5
54C
 10
7792.96
 20
82050.8
 30
0.000000
  70
    32
  0
VERTEX
  8
SAIBU
  5
54D
 10
7793.01
 20
82051.1
 30
0.000000
  70
    32
  0
VERTEX
  8
SAIBU
  5
54E
 10
7793.05
 20
82051.4
 30
0.000000
  70
    32
  0
VERTEX
  8
SAIBU
  5
54F
 10
7793.07
 20
82051.8
 30
0.000000
  70
    32
  0
VERTEX
  8
SAIBU
  5
550
 10
7793.07
 20
82052.1
 30
0.000000
  70
    32
  0
SEQEND
  8
SAIBU
  5
551
  0
LINE
  5
BD
  8
SAIBU
 10
7808.8090284254868
 20
82111.199899748477
 30
0.0
 11
7808.8090284254868
 21
82102.779672414239
 31
0.0
  0
LINE
  5
BE
  8
SAIBU
 10
7726.0667649493553
 20
82111.199899748477
 30
0.0
 11
7726.0667649493553
 21
82102.779672414239
 31
0.0
  0
POLYLINE
  5
BF
  8
SAIBU
 10
7726.0667649493571
 20
82102.779672414239
 30
0.0
 66
     1
 70
     8
  0
VERTEX
  8
SAIBU
  5
552
 10
7726.07
 20
82102.8
 30
0.000000
  70
    32
  0
VERTEX
  8
SAIBU
  5
553
 10
7726.08
 20
82102.3
 30
0.000000
  70
    32
  0
VERTEX
  8
SAIBU
  5
554
 10
7726.12
 20
82101.7
 30
0.000000
  70
    32
  0
VERTEX
  8
SAIBU
  5
555
 10
7726.18
 20
82101.2
 30
0.000000
  70
    32
  0
VERTEX
  8
SAIBU
  5
556
 10
7726.27
 20
82100.7
 30
0.000000
  70
    32
  0
VERTEX
  8
SAIBU
  5
557
 10
7726.38
 20
82100.2
 30
0.000000
  70
    32
  0
VERTEX
  8
SAIBU
  5
558
 10
7726.51
 20
82099.6
 30
0.000000
  70
    32
  0
VERTEX
  8
SAIBU
  5
559
 10
7726.68
 20
82099.1
 30
0.000000
  70
    32
  0
VERTEX
  8
SAIBU
  5
55A
 10
7726.86
 20
82098.6
 30
0.000000
  70
    32
  0
VERTEX
  8
SAIBU
  5
55B
 10
7727.07
 20
82098.1
 30
0.000000
  70
    32
  0
VERTEX
  8
SAIBU
  5
55C
 10
7727.31
 20
82097.6
 30
0.000000
  70
    32
  0
VERTEX
  8
SAIBU
  5
55D
 10
7727.57
 20
82097.1
 30
0.000000
  70
    32
  0
VERTEX
  8
SAIBU
  5
55E
 10
7727.85
 20
82096.6
 30
0.000000
  70
    32
  0
VERTEX
  8
SAIBU
  5
55F
 10
7728.15
 20
82096.1
 30
0.000000
  70
    32
  0
VERTEX
  8
SAIBU
  5
560
 10
7728.49
 20
82095.6
 30
0.000000
  70
    32
  0
VERTEX
  8
SAIBU
  5
561
 10
7728.84
 20
82095.1
 30
0.000000
  70
    32
  0
VERTEX
  8
SAIBU
  5
562
 10
7729.22
 20
82094.6
 30
0.000000
  70
    32
  0
VERTEX
  8
SAIBU
  5
563
 10
7729.62
 20
82094.1
 30
0.000000
  70
    32
  0
VERTEX
  8
SAIBU
  5
564
 10
7730.04
 20
82093.6
 30
0.000000
  70
    32
  0
VERTEX
  8
SAIBU
  5
565
 10
7730.48
 20
82093.1
 30
0.000000
  70
    32
  0
VERTEX
  8
SAIBU
  5
566
 10
7730.95
 20
82092.7
 30
0.000000
  70
    32
  0
VERTEX
  8
SAIBU
  5
567
 10
7731.44
 20
82092.2
 30
0.000000
  70
    32
  0
VERTEX
  8
SAIBU
  5
568
 10
7731.95
 20
82091.8
 30
0.000000
  70
    32
  0
VERTEX
  8
SAIBU
  5
569
 10
7732.49
 20
82091.3
 30
0.000000
  70
    32
  0
VERTEX
  8
SAIBU
  5
56A
 10
7733.04
 20
82090.9
 30
0.000000
  70
    32
  0
VERTEX
  8
SAIBU
  5
56B
 10
7733.61
 20
82090.4
 30
0.000000
  70
    32
  0
VERTEX
  8
SAIBU
  5
56C
 10
7734.21
 20
82090.0
 30
0.000000
  70
    32
  0
VERTEX
  8
SAIBU
  5
56D
 10
7734.82
 20
82089.6
 30
0.000000
  70
    32
  0
VERTEX
  8
SAIBU
  5
56E
 10
7735.46
 20
82089.2
 30
0.000000
  70
    32
  0
VERTEX
  8
SAIBU
  5
56F
 10
7736.11
 20
82088.8
 30
0.000000
  70
    32
  0
VERTEX
  8
SAIBU
  5
570
 10
7736.78
 20
82088.4
 30
0.000000
  70
    32
  0
VERTEX
  8
SAIBU
  5
571
 10
7737.47
 20
82088.0
 30
0.000000
  70
    32
  0
VERTEX
  8
SAIBU
  5
572
 10
7738.18
 20
82087.6
 30
0.000000
  70
    32
  0
VERTEX
  8
SAIBU
  5
573
 10
7738.91
 20
82087.2
 30
0.000000
  70
    32
  0
VERTEX
  8
SAIBU
  5
574
 10
7739.65
 20
82086.9
 30
0.000000
  70
    32
  0
VERTEX
  8
SAIBU
  5
575
 10
7740.42
 20
82086.5
 30
0.000000
  70
    32
  0
VERTEX
  8
SAIBU
  5
576
 10
7741.19
 20
82086.2
 30
0.000000
  70
    32
  0
VERTEX
  8
SAIBU
  5
577
 10
7741.99
 20
82085.9
 30
0.000000
  70
    32
  0
VERTEX
  8
SAIBU
  5
578
 10
7742.79
 20
82085.5
 30
0.000000
  70
    32
  0
VERTEX
  8
SAIBU
  5
579
 10
7743.62
 20
82085.2
 30
0.000000
  70
    32
  0
VERTEX
  8
SAIBU
  5
57A
 10
7744.45
 20
82084.9
 30
0.000000
  70
    32
  0
VERTEX
  8
SAIBU
  5
57B
 10
7745.30
 20
82084.7
 30
0.000000
  70
    32
  0
VERTEX
  8
SAIBU
  5
57C
 10
7746.17
 20
82084.4
 30
0.000000
  70
    32
  0
VERTEX
  8
SAIBU
  5
57D
 10
7747.05
 20
82084.1
 30
0.000000
  70
    32
  0
VERTEX
  8
SAIBU
  5
57E
 10
7747.94
 20
82083.9
 30
0.000000
  70
    32
  0
VERTEX
  8
SAIBU
  5
57F
 10
7748.84
 20
82083.6
 30
0.000000
  70
    32
  0
VERTEX
  8
SAIBU
  5
580
 10
7749.75
 20
82083.4
 30
0.000000
  70
    32
  0
VERTEX
  8
SAIBU
  5
581
 10
7750.67
 20
82083.2
 30
0.000000
  70
    32
  0
VERTEX
  8
SAIBU
  5
582
 10
7751.61
 20
82083.0
 30
0.000000
  70
    32
  0
VERTEX
  8
SAIBU
  5
583
 10
7752.55
 20
82082.8
 30
0.000000
  70
    32
  0
VERTEX
  8
SAIBU
  5
584
 10
7753.50
 20
82082.6
 30
0.000000
  70
    32
  0
VERTEX
  8
SAIBU
  5
585
 10
7754.46
 20
82082.4
 30
0.000000
  70
    32
  0
VERTEX
  8
SAIBU
  5
586
 10
7755.43
 20
82082.3
 30
0.000000
  70
    32
  0
VERTEX
  8
SAIBU
  5
587
 10
7756.40
 20
82082.1
 30
0.000000
  70
    32
  0
VERTEX
  8
SAIBU
  5
588
 10
7757.39
 20
82082.0
 30
0.000000
  70
    32
  0
VERTEX
  8
SAIBU
  5
589
 10
7758.37
 20
82081.8
 30
0.000000
  70
    32
  0
VERTEX
  8
SAIBU
  5
58A
 10
7759.37
 20
82081.7
 30
0.000000
  70
    32
  0
VERTEX
  8
SAIBU
  5
58B
 10
7760.37
 20
82081.6
 30
0.000000
  70
    32
  0
VERTEX
  8
SAIBU
  5
58C
 10
7761.37
 20
82081.6
 30
0.000000
  70
    32
  0
VERTEX
  8
SAIBU
  5
58D
 10
7762.37
 20
82081.5
 30
0.000000
  70
    32
  0
VERTEX
  8
SAIBU
  5
58E
 10
7763.38
 20
82081.4
 30
0.000000
  70
    32
  0
VERTEX
  8
SAIBU
  5
58F
 10
7764.39
 20
82081.4
 30
0.000000
  70
    32
  0
VERTEX
  8
SAIBU
  5
590
 10
7765.41
 20
82081.4
 30
0.000000
  70
    32
  0
VERTEX
  8
SAIBU
  5
591
 10
7766.42
 20
82081.3
 30
0.000000
  70
    32
  0
VERTEX
  8
SAIBU
  5
592
 10
7767.44
 20
82081.3
 30
0.000000
  70
    32
  0
VERTEX
  8
SAIBU
  5
593
 10
7768.45
 20
82081.3
 30
0.000000
  70
    32
  0
VERTEX
  8
SAIBU
  5
594
 10
7769.47
 20
82081.4
 30
0.000000
  70
    32
  0
VERTEX
  8
SAIBU
  5
595
 10
7770.48
 20
82081.4
 30
0.000000
  70
    32
  0
VERTEX
  8
SAIBU
  5
596
 10
7771.49
 20
82081.4
 30
0.000000
  70
    32
  0
VERTEX
  8
SAIBU
  5
597
 10
7772.50
 20
82081.5
 30
0.000000
  70
    32
  0
VERTEX
  8
SAIBU
  5
598
 10
7773.51
 20
82081.6
 30
0.000000
  70
    32
  0
VERTEX
  8
SAIBU
  5
599
 10
7774.51
 20
82081.6
 30
0.000000
  70
    32
  0
VERTEX
  8
SAIBU
  5
59A
 10
7775.51
 20
82081.7
 30
0.000000
  70
    32
  0
VERTEX
  8
SAIBU
  5
59B
 10
7776.50
 20
82081.8
 30
0.000000
  70
    32
  0
VERTEX
  8
SAIBU
  5
59C
 10
7777.49
 20
82082.0
 30
0.000000
  70
    32
  0
VERTEX
  8
SAIBU
  5
59D
 10
7778.47
 20
82082.1
 30
0.000000
  70
    32
  0
VERTEX
  8
SAIBU
  5
59E
 10
7779.45
 20
82082.3
 30
0.000000
  70
    32
  0
VERTEX
  8
SAIBU
  5
59F
 10
7780.42
 20
82082.4
 30
0.000000
  70
    32
  0
VERTEX
  8
SAIBU
  5
5A0
 10
7781.38
 20
82082.6
 30
0.000000
  70
    32
  0
VERTEX
  8
SAIBU
  5
5A1
 10
7782.33
 20
82082.8
 30
0.000000
  70
    32
  0
VERTEX
  8
SAIBU
  5
5A2
 10
7783.27
 20
82083.0
 30
0.000000
  70
    32
  0
VERTEX
  8
SAIBU
  5
5A3
 10
7784.20
 20
82083.2
 30
0.000000
  70
    32
  0
VERTEX
  8
SAIBU
  5
5A4
 10
7785.13
 20
82083.4
 30
0.000000
  70
    32
  0
VERTEX
  8
SAIBU
  5
5A5
 10
7786.04
 20
82083.6
 30
0.000000
  70
    32
  0
VERTEX
  8
SAIBU
  5
5A6
 10
7786.94
 20
82083.9
 30
0.000000
  70
    32
  0
VERTEX
  8
SAIBU
  5
5A7
 10
7787.83
 20
82084.1
 30
0.000000
  70
    32
  0
VERTEX
  8
SAIBU
  5
5A8
 10
7788.71
 20
82084.4
 30
0.000000
  70
    32
  0
VERTEX
  8
SAIBU
  5
5A9
 10
7789.57
 20
82084.7
 30
0.000000
  70
    32
  0
VERTEX
  8
SAIBU
  5
5AA
 10
7790.42
 20
82084.9
 30
0.000000
  70
    32
  0
VERTEX
  8
SAIBU
  5
5AB
 10
7791.26
 20
82085.2
 30
0.000000
  70
    32
  0
VERTEX
  8
SAIBU
  5
5AC
 10
7792.08
 20
82085.5
 30
0.000000
  70
    32
  0
VERTEX
  8
SAIBU
  5
5AD
 10
7792.89
 20
82085.9
 30
0.000000
  70
    32
  0
VERTEX
  8
SAIBU
  5
5AE
 10
7793.68
 20
82086.2
 30
0.000000
  70
    32
  0
VERTEX
  8
SAIBU
  5
5AF
 10
7794.46
 20
82086.5
 30
0.000000
  70
    32
  0
VERTEX
  8
SAIBU
  5
5B0
 10
7795.22
 20
82086.9
 30
0.000000
  70
    32
  0
VERTEX
  8
SAIBU
  5
5B1
 10
7795.96
 20
82087.2
 30
0.000000
  70
    32
  0
VERTEX
  8
SAIBU
  5
5B2
 10
7796.69
 20
82087.6
 30
0.000000
  70
    32
  0
VERTEX
  8
SAIBU
  5
5B3
 10
7797.40
 20
82088.0
 30
0.000000
  70
    32
  0
VERTEX
  8
SAIBU
  5
5B4
 10
7798.09
 20
82088.4
 30
0.000000
  70
    32
  0
VERTEX
  8
SAIBU
  5
5B5
 10
7798.76
 20
82088.8
 30
0.000000
  70
    32
  0
VERTEX
  8
SAIBU
  5
5B6
 10
7799.42
 20
82089.2
 30
0.000000
  70
    32
  0
VERTEX
  8
SAIBU
  5
5B7
 10
7800.05
 20
82089.6
 30
0.000000
  70
    32
  0
VERTEX
  8
SAIBU
  5
5B8
 10
7800.67
 20
82090.0
 30
0.000000
  70
    32
  0
VERTEX
  8
SAIBU
  5
5B9
 10
7801.26
 20
82090.4
 30
0.000000
  70
    32
  0
VERTEX
  8
SAIBU
  5
5BA
 10
7801.84
 20
82090.9
 30
0.000000
  70
    32
  0
VERTEX
  8
SAIBU
  5
5BB
 10
7802.39
 20
82091.3
 30
0.000000
  70
    32
  0
VERTEX
  8
SAIBU
  5
5BC
 10
7802.92
 20
82091.8
 30
0.000000
  70
    32
  0
VERTEX
  8
SAIBU
  5
5BD
 10
7803.43
 20
82092.2
 30
0.000000
  70
    32
  0
VERTEX
  8
SAIBU
  5
5BE
 10
7803.92
 20
82092.7
 30
0.000000
  70
    32
  0
VERTEX
  8
SAIBU
  5
5BF
 10
7804.39
 20
82093.1
 30
0.000000
  70
    32
  0
VERTEX
  8
SAIBU
  5
5C0
 10
7804.84
 20
82093.6
 30
0.000000
  70
    32
  0
VERTEX
  8
SAIBU
  5
5C1
 10
7805.26
 20
82094.1
 30
0.000000
  70
    32
  0
VERTEX
  8
SAIBU
  5
5C2
 10
7805.66
 20
82094.6
 30
0.000000
  70
    32
  0
VERTEX
  8
SAIBU
  5
5C3
 10
7806.04
 20
82095.1
 30
0.000000
  70
    32
  0
VERTEX
  8
SAIBU
  5
5C4
 10
7806.39
 20
82095.6
 30
0.000000
  70
    32
  0
VERTEX
  8
SAIBU
  5
5C5
 10
7806.72
 20
82096.1
 30
0.000000
  70
    32
  0
VERTEX
  8
SAIBU
  5
5C6
 10
7807.03
 20
82096.6
 30
0.000000
  70
    32
  0
VERTEX
  8
SAIBU
  5
5C7
 10
7807.31
 20
82097.1
 30
0.000000
  70
    32
  0
VERTEX
  8
SAIBU
  5
5C8
 10
7807.57
 20
82097.6
 30
0.000000
  70
    32
  0
VERTEX
  8
SAIBU
  5
5C9
 10
7807.80
 20
82098.1
 30
0.000000
  70
    32
  0
VERTEX
  8
SAIBU
  5
5CA
 10
7808.01
 20
82098.6
 30
0.000000
  70
    32
  0
VERTEX
  8
SAIBU
  5
5CB
 10
7808.20
 20
82099.1
 30
0.000000
  70
    32
  0
VERTEX
  8
SAIBU
  5
5CC
 10
7808.36
 20
82099.6
 30
0.000000
  70
    32
  0
VERTEX
  8
SAIBU
  5
5CD
 10
7808.50
 20
82100.2
 30
0.000000
  70
    32
  0
VERTEX
  8
SAIBU
  5
5CE
 10
7808.61
 20
82100.7
 30
0.000000
  70
    32
  0
VERTEX
  8
SAIBU
  5
5CF
 10
7808.70
 20
82101.2
 30
0.000000
  70
    32
  0
VERTEX
  8
SAIBU
  5
5D0
 10
7808.76
 20
82101.7
 30
0.000000
  70
    32
  0
VERTEX
  8
SAIBU
  5
5D1
 10
7808.80
 20
82102.3
 30
0.000000
  70
    32
  0
VERTEX
  8
SAIBU
  5
5D2
 10
7808.81
 20
82102.8
 30
0.000000
  70
    32
  0
SEQEND
  8
SAIBU
  5
5D3
  0
POLYLINE
  5
C0
  8
SAIBU
 10
7808.8090284254868
 20
82111.199899748477
 30
0.0
 66
     1
 70
     8
  0
VERTEX
  8
SAIBU
  5
5D4
 10
7808.81
 20
82111.2
 30
0.000000
  70
    32
  0
VERTEX
  8
SAIBU
  5
5D5
 10
7808.76
 20
82112.3
 30
0.000000
  70
    32
  0
VERTEX
  8
SAIBU
  5
5D6
 10
7808.61
 20
82113.3
 30
0.000000
  70
    32
  0
VERTEX
  8
SAIBU
  5
5D7
 10
7808.36
 20
82114.3
 30
0.000000
  70
    32
  0
VERTEX
  8
SAIBU
  5
5D8
 10
7808.01
 20
82115.4
 30
0.000000
  70
    32
  0
VERTEX
  8
SAIBU
  5
5D9
 10
7807.57
 20
82116.4
 30
0.000000
  70
    32
  0
VERTEX
  8
SAIBU
  5
5DA
 10
7807.03
 20
82117.4
 30
0.000000
  70
    32
  0
VERTEX
  8
SAIBU
  5
5DB
 10
7806.39
 20
82118.4
 30
0.000000
  70
    32
  0
VERTEX
  8
SAIBU
  5
5DC
 10
7805.66
 20
82119.4
 30
0.000000
  70
    32
  0
VERTEX
  8
SAIBU
  5
5DD
 10
7804.84
 20
82120.4
 30
0.000000
  70
    32
  0
VERTEX
  8
SAIBU
  5
5DE
 10
7803.92
 20
82121.3
 30
0.000000
  70
    32
  0
VERTEX
  8
SAIBU
  5
5DF
 10
7802.92
 20
82122.2
 30
0.000000
  70
    32
  0
VERTEX
  8
SAIBU
  5
5E0
 10
7801.84
 20
82123.1
 30
0.000000
  70
    32
  0
VERTEX
  8
SAIBU
  5
5E1
 10
7800.67
 20
82124.0
 30
0.000000
  70
    32
  0
VERTEX
  8
SAIBU
  5
5E2
 10
7799.42
 20
82124.8
 30
0.000000
  70
    32
  0
VERTEX
  8
SAIBU
  5
5E3
 10
7798.09
 20
82125.6
 30
0.000000
  70
    32
  0
VERTEX
  8
SAIBU
  5
5E4
 10
7796.69
 20
82126.4
 30
0.000000
  70
    32
  0
VERTEX
  8
SAIBU
  5
5E5
 10
7795.22
 20
82127.1
 30
0.000000
  70
    32
  0
VERTEX
  8
SAIBU
  5
5E6
 10
7793.68
 20
82127.8
 30
0.000000
  70
    32
  0
VERTEX
  8
SAIBU
  5
5E7
 10
7792.08
 20
82128.4
 30
0.000000
  70
    32
  0
VERTEX
  8
SAIBU
  5
5E8
 10
7790.42
 20
82129.0
 30
0.000000
  70
    32
  0
VERTEX
  8
SAIBU
  5
5E9
 10
7788.71
 20
82129.6
 30
0.000000
  70
    32
  0
VERTEX
  8
SAIBU
  5
5EA
 10
7786.94
 20
82130.1
 30
0.000000
  70
    32
  0
VERTEX
  8
SAIBU
  5
5EB
 10
7785.13
 20
82130.6
 30
0.000000
  70
    32
  0
VERTEX
  8
SAIBU
  5
5EC
 10
7783.27
 20
82131.0
 30
0.000000
  70
    32
  0
VERTEX
  8
SAIBU
  5
5ED
 10
7781.38
 20
82131.4
 30
0.000000
  70
    32
  0
VERTEX
  8
SAIBU
  5
5EE
 10
7779.45
 20
82131.7
 30
0.000000
  70
    32
  0
VERTEX
  8
SAIBU
  5
5EF
 10
7777.49
 20
82132.0
 30
0.000000
  70
    32
  0
VERTEX
  8
SAIBU
  5
5F0
 10
7775.51
 20
82132.2
 30
0.000000
  70
    32
  0
VERTEX
  8
SAIBU
  5
5F1
 10
7773.51
 20
82132.4
 30
0.000000
  70
    32
  0
VERTEX
  8
SAIBU
  5
5F2
 10
7771.49
 20
82132.5
 30
0.000000
  70
    32
  0
VERTEX
  8
SAIBU
  5
5F3
 10
7769.47
 20
82132.6
 30
0.000000
  70
    32
  0
VERTEX
  8
SAIBU
  5
5F4
 10
7767.44
 20
82132.7
 30
0.000000
  70
    32
  0
VERTEX
  8
SAIBU
  5
5F5
 10
7765.41
 20
82132.6
 30
0.000000
  70
    32
  0
VERTEX
  8
SAIBU
  5
5F6
 10
7763.38
 20
82132.5
 30
0.000000
  70
    32
  0
VERTEX
  8
SAIBU
  5
5F7
 10
7761.37
 20
82132.4
 30
0.000000
  70
    32
  0
VERTEX
  8
SAIBU
  5
5F8
 10
7759.37
 20
82132.2
 30
0.000000
  70
    32
  0
VERTEX
  8
SAIBU
  5
5F9
 10
7757.39
 20
82132.0
 30
0.000000
  70
    32
  0
VERTEX
  8
SAIBU
  5
5FA
 10
7755.43
 20
82131.7
 30
0.000000
  70
    32
  0
VERTEX
  8
SAIBU
  5
5FB
 10
7753.50
 20
82131.4
 30
0.000000
  70
    32
  0
VERTEX
  8
SAIBU
  5
5FC
 10
7751.61
 20
82131.0
 30
0.000000
  70
    32
  0
VERTEX
  8
SAIBU
  5
5FD
 10
7749.75
 20
82130.6
 30
0.000000
  70
    32
  0
VERTEX
  8
SAIBU
  5
5FE
 10
7747.94
 20
82130.1
 30
0.000000
  70
    32
  0
VERTEX
  8
SAIBU
  5
5FF
 10
7746.17
 20
82129.6
 30
0.000000
  70
    32
  0
VERTEX
  8
SAIBU
  5
600
 10
7744.45
 20
82129.0
 30
0.000000
  70
    32
  0
VERTEX
  8
SAIBU
  5
601
 10
7742.79
 20
82128.4
 30
0.000000
  70
    32
  0
VERTEX
  8
SAIBU
  5
602
 10
7741.19
 20
82127.8
 30
0.000000
  70
    32
  0
VERTEX
  8
SAIBU
  5
603
 10
7739.65
 20
82127.1
 30
0.000000
  70
    32
  0
VERTEX
  8
SAIBU
  5
604
 10
7738.18
 20
82126.4
 30
0.000000
  70
    32
  0
VERTEX
  8
SAIBU
  5
605
 10
7736.78
 20
82125.6
 30
0.000000
  70
    32
  0
VERTEX
  8
SAIBU
  5
606
 10
7735.46
 20
82124.8
 30
0.000000
  70
    32
  0
VERTEX
  8
SAIBU
  5
607
 10
7734.21
 20
82124.0
 30
0.000000
  70
    32
  0
VERTEX
  8
SAIBU
  5
608
 10
7733.04
 20
82123.1
 30
0.000000
  70
    32
  0
VERTEX
  8
SAIBU
  5
609
 10
7731.95
 20
82122.2
 30
0.000000
  70
    32
  0
VERTEX
  8
SAIBU
  5
60A
 10
7730.95
 20
82121.3
 30
0.000000
  70
    32
  0
VERTEX
  8
SAIBU
  5
60B
 10
7730.04
 20
82120.4
 30
0.000000
  70
    32
  0
VERTEX
  8
SAIBU
  5
60C
 10
7729.22
 20
82119.4
 30
0.000000
  70
    32
  0
VERTEX
  8
SAIBU
  5
60D
 10
7728.49
 20
82118.4
 30
0.000000
  70
    32
  0
VERTEX
  8
SAIBU
  5
60E
 10
7727.85
 20
82117.4
 30
0.000000
  70
    32
  0
VERTEX
  8
SAIBU
  5
60F
 10
7727.31
 20
82116.4
 30
0.000000
  70
    32
  0
VERTEX
  8
SAIBU
  5
610
 10
7726.86
 20
82115.4
 30
0.000000
  70
    32
  0
VERTEX
  8
SAIBU
  5
611
 10
7726.51
 20
82114.3
 30
0.000000
  70
    32
  0
VERTEX
  8
SAIBU
  5
612
 10
7726.27
 20
82113.3
 30
0.000000
  70
    32
  0
VERTEX
  8
SAIBU
  5
613
 10
7726.12
 20
82112.3
 30
0.000000
  70
    32
  0
VERTEX
  8
SAIBU
  5
614
 10
7726.07
 20
82111.2
 30
0.000000
  70
    32
  0
VERTEX
  8
SAIBU
  5
615
 10
7726.12
 20
82110.1
 30
0.000000
  70
    32
  0
VERTEX
  8
SAIBU
  5
616
 10
7726.27
 20
82109.1
 30
0.000000
  70
    32
  0
VERTEX
  8
SAIBU
  5
617
 10
7726.51
 20
82108.1
 30
0.000000
  70
    32
  0
VERTEX
  8
SAIBU
  5
618
 10
7726.86
 20
82107.0
 30
0.000000
  70
    32
  0
VERTEX
  8
SAIBU
  5
619
 10
7727.31
 20
82106.0
 30
0.000000
  70
    32
  0
VERTEX
  8
SAIBU
  5
61A
 10
7727.85
 20
82105.0
 30
0.000000
  70
    32
  0
VERTEX
  8
SAIBU
  5
61B
 10
7728.49
 20
82104.0
 30
0.000000
  70
    32
  0
VERTEX
  8
SAIBU
  5
61C
 10
7729.22
 20
82103.0
 30
0.000000
  70
    32
  0
VERTEX
  8
SAIBU
  5
61D
 10
7730.04
 20
82102.0
 30
0.000000
  70
    32
  0
VERTEX
  8
SAIBU
  5
61E
 10
7730.95
 20
82101.1
 30
0.000000
  70
    32
  0
VERTEX
  8
SAIBU
  5
61F
 10
7731.95
 20
82100.2
 30
0.000000
  70
    32
  0
VERTEX
  8
SAIBU
  5
620
 10
7733.04
 20
82099.3
 30
0.000000
  70
    32
  0
VERTEX
  8
SAIBU
  5
621
 10
7734.21
 20
82098.4
 30
0.000000
  70
    32
  0
VERTEX
  8
SAIBU
  5
622
 10
7735.46
 20
82097.6
 30
0.000000
  70
    32
  0
VERTEX
  8
SAIBU
  5
623
 10
7736.78
 20
82096.8
 30
0.000000
  70
    32
  0
VERTEX
  8
SAIBU
  5
624
 10
7738.18
 20
82096.0
 30
0.000000
  70
    32
  0
VERTEX
  8
SAIBU
  5
625
 10
7739.65
 20
82095.3
 30
0.000000
  70
    32
  0
VERTEX
  8
SAIBU
  5
626
 10
7741.19
 20
82094.6
 30
0.000000
  70
    32
  0
VERTEX
  8
SAIBU
  5
627
 10
7742.79
 20
82094.0
 30
0.000000
  70
    32
  0
VERTEX
  8
SAIBU
  5
628
 10
7744.45
 20
82093.4
 30
0.000000
  70
    32
  0
VERTEX
  8
SAIBU
  5
629
 10
7746.17
 20
82092.8
 30
0.000000
  70
    32
  0
VERTEX
  8
SAIBU
  5
62A
 10
7747.94
 20
82092.3
 30
0.000000
  70
    32
  0
VERTEX
  8
SAIBU
  5
62B
 10
7749.75
 20
82091.8
 30
0.000000
  70
    32
  0
VERTEX
  8
SAIBU
  5
62C
 10
7751.61
 20
82091.4
 30
0.000000
  70
    32
  0
VERTEX
  8
SAIBU
  5
62D
 10
7753.50
 20
82091.0
 30
0.000000
  70
    32
  0
VERTEX
  8
SAIBU
  5
62E
 10
7755.43
 20
82090.7
 30
0.000000
  70
    32
  0
VERTEX
  8
SAIBU
  5
62F
 10
7757.39
 20
82090.4
 30
0.000000
  70
    32
  0
VERTEX
  8
SAIBU
  5
630
 10
7759.37
 20
82090.2
 30
0.000000
  70
    32
  0
VERTEX
  8
SAIBU
  5
631
 10
7761.37
 20
82090.0
 30
0.000000
  70
    32
  0
VERTEX
  8
SAIBU
  5
632
 10
7763.38
 20
82089.9
 30
0.000000
  70
    32
  0
VERTEX
  8
SAIBU
  5
633
 10
7765.41
 20
82089.8
 30
0.000000
  70
    32
  0
VERTEX
  8
SAIBU
  5
634
 10
7767.44
 20
82089.7
 30
0.000000
  70
    32
  0
VERTEX
  8
SAIBU
  5
635
 10
7769.47
 20
82089.8
 30
0.000000
  70
    32
  0
VERTEX
  8
SAIBU
  5
636
 10
7771.49
 20
82089.9
 30
0.000000
  70
    32
  0
VERTEX
  8
SAIBU
  5
637
 10
7773.51
 20
82090.0
 30
0.000000
  70
    32
  0
VERTEX
  8
SAIBU
  5
638
 10
7775.51
 20
82090.2
 30
0.000000
  70
    32
  0
VERTEX
  8
SAIBU
  5
639
 10
7777.49
 20
82090.4
 30
0.000000
  70
    32
  0
VERTEX
  8
SAIBU
  5
63A
 10
7779.45
 20
82090.7
 30
0.000000
  70
    32
  0
VERTEX
  8
SAIBU
  5
63B
 10
7781.38
 20
82091.0
 30
0.000000
  70
    32
  0
VERTEX
  8
SAIBU
  5
63C
 10
7783.27
 20
82091.4
 30
0.000000
  70
    32
  0
VERTEX
  8
SAIBU
  5
63D
 10
7785.13
 20
82091.8
 30
0.000000
  70
    32
  0
VERTEX
  8
SAIBU
  5
63E
 10
7786.94
 20
82092.3
 30
0.000000
  70
    32
  0
VERTEX
  8
SAIBU
  5
63F
 10
7788.71
 20
82092.8
 30
0.000000
  70
    32
  0
VERTEX
  8
SAIBU
  5
640
 10
7790.42
 20
82093.4
 30
0.000000
  70
    32
  0
VERTEX
  8
SAIBU
  5
641
 10
7792.08
 20
82094.0
 30
0.000000
  70
    32
  0
VERTEX
  8
SAIBU
  5
642
 10
7793.68
 20
82094.6
 30
0.000000
  70
    32
  0
VERTEX
  8
SAIBU
  5
643
 10
7795.22
 20
82095.3
 30
0.000000
  70
    32
  0
VERTEX
  8
SAIBU
  5
644
 10
7796.69
 20
82096.0
 30
0.000000
  70
    32
  0
VERTEX
  8
SAIBU
  5
645
 10
7798.09
 20
82096.8
 30
0.000000
  70
    32
  0
VERTEX
  8
SAIBU
  5
646
 10
7799.42
 20
82097.6
 30
0.000000
  70
    32
  0
VERTEX
  8
SAIBU
  5
647
 10
7800.67
 20
82098.4
 30
0.000000
  70
    32
  0
VERTEX
  8
SAIBU
  5
648
 10
7801.84
 20
82099.3
 30
0.000000
  70
    32
  0
VERTEX
  8
SAIBU
  5
649
 10
7802.92
 20
82100.2
 30
0.000000
  70
    32
  0
VERTEX
  8
SAIBU
  5
64A
 10
7803.92
 20
82101.1
 30
0.000000
  70
    32
  0
VERTEX
  8
SAIBU
  5
64B
 10
7804.84
 20
82102.0
 30
0.000000
  70
    32
  0
VERTEX
  8
SAIBU
  5
64C
 10
7805.66
 20
82103.0
 30
0.000000
  70
    32
  0
VERTEX
  8
SAIBU
  5
64D
 10
7806.39
 20
82104.0
 30
0.000000
  70
    32
  0
VERTEX
  8
SAIBU
  5
64E
 10
7807.03
 20
82105.0
 30
0.000000
  70
    32
  0
VERTEX
  8
SAIBU
  5
64F
 10
7807.57
 20
82106.0
 30
0.000000
  70
    32
  0
VERTEX
  8
SAIBU
  5
650
 10
7808.01
 20
82107.0
 30
0.000000
  70
    32
  0
VERTEX
  8
SAIBU
  5
651
 10
7808.36
 20
82108.1
 30
0.000000
  70
    32
  0
VERTEX
  8
SAIBU
  5
652
 10
7808.61
 20
82109.1
 30
0.000000
  70
    32
  0
VERTEX
  8
SAIBU
  5
653
 10
7808.76
 20
82110.1
 30
0.000000
  70
    32
  0
VERTEX
  8
SAIBU
  5
654
 10
7808.81
 20
82111.2
 30
0.000000
  70
    32
  0
SEQEND
  8
SAIBU
  5
655
  0
LINE
  5
C1
  8
HONTAI
 62
     2
 10
7988.0012521482431
 20
81684.356248494296
 30
0.0
 11
7988.0012521482431
 21
81999.155184103583
 31
0.0
  0
ARC
  5
C2
  8
HONTAI
 62
     2
 10
7935.0758521482339
 20
81999.155184103583
 30
0.0
 40
52.92540000000001
 50
0.0
 51
90.0
  0
ARC
  5
C3
  8
HONTAI
 62
     2
 10
7310.7617590873269
 20
81999.155184103583
 30
0.0
 40
52.92540000000001
 50
90.0
 51
180.0
  0
LINE
  5
C4
  8
HONTAI
 62
     2
 10
7257.8363590873196
 20
81999.155184103583
 30
0.0
 11
7257.8363590873196
 21
81684.356248494296
 31
0.0
  0
LINE
  5
C5
  8
HONTAI
 62
     2
 10
8608.7556492395815
 20
82094.356248494296
 30
0.0
 11
9102.2981114273425
 21
82094.356248494296
 31
0.0
  0
LINE
  5
C6
  8
HONTAI
 62
     2
 10
7805.4860852779238
 20
82094.356248494296
 30
0.0
 11
8532.6592720585777
 21
82094.356248494296
 31
0.0
  0
LINE
  5
C7
  8
SAIBU
 10
7185.8699127585278
 20
82019.398019495187
 30
0.0
 11
7261.8605772972232
 21
82019.398019495187
 31
0.0
  0
LINE
  5
C8
  8
HONTAI
 62
     2
 10
7251.264852144931
 20
82124.356248494296
 30
0.0
 11
7251.264852144931
 21
82019.398019495187
 31
0.0
  0
LINE
  5
C9
  8
SAIBU
 10
7983.9770339383394
 20
82019.398019495187
 30
0.0
 11
8065.1301412588809
 21
82019.398019495187
 31
0.0
  0
LINE
  5
CA
  8
SAIBU
 10
8787.2465978999971
 20
82019.398019495187
 30
0.0
 11
8933.5410113140824
 21
82019.398019495187
 31
0.0
  0
LINE
  5
CB
  8
HONTAI
 62
     2
 10
9293.1406242799112
 20
82123.084927595162
 30
0.0
 11
9293.1406242799112
 21
82061.242073780159
 31
0.0
  0
LINE
  5
CC
  8
HONTAI
 62
     2
 10
9228.1102184320334
 20
82106.565383680165
 30
0.0
 11
9228.1102184320334
 21
82042.172212968057
 31
0.0
  0
LINE
  5
CD
  8
SAIBU
 10
9053.8362823437201
 20
82019.398019495187
 30
0.0
 11
9174.6816444337019
 21
82019.398019495246
 31
0.0
  0
LINE
  5
CE
  8
SAIBU
 10
8995.1573103311257
 20
82019.398019495187
 30
0.0
 11
8995.1573103311257
 21
82094.356248494296
 31
0.0
  0
LINE
  5
CF
  8
HONTAI
 62
     2
 10
11224.41153716692
 20
81689.356248494296
 30
0.0
 11
11299.05441841623
 21
81689.356248494296
 31
0.0
  0
LINE
  5
D0
  8
HONTAI
 62
     2
 10
11327.98041683912
 20
81689.356248494296
 30
0.0
 11
11435.869912758521
 21
81689.356248494296
 31
0.0
  0
LINE
  5
D1
  8
HONTAI
 62
     2
 10
11219.67024106817
 20
81919.356248494296
 30
0.0
 11
11362.05169340887
 21
81919.356248494296
 31
0.0
  0
LINE
  5
D2
  8
HONTAI
 62
     2
 10
11052.8447712991
 20
82107.374924037547
 30
0.0
 11
11435.869912758521
 21
81874.469789490104
 31
0.0
  0
LINE
  5
D3
  8
HONTAI
 62
     2
 10
11005.762894807731
 20
82058.678749846353
 30
0.0
 11
11005.762894807731
 21
81985.745237088471
 31
0.0
  0
LINE
  5
D4
  8
HONTAI
 62
     2
 10
11040.155773526931
 20
81961.014667001495
 30
0.0
 11
11137.46478285722
 21
81961.014667001495
 31
0.0
  0
LINE
  5
D5
  8
HONTAI
 62
     2
 10
10990.289642473799
 20
81995.590414954699
 30
0.0
 11
11005.762894807731
 21
81995.590414954757
 31
0.0
  0
LINE
  5
D6
  8
HONTAI
 62
     2
 10
10994.760114248609
 20
82107.374924037547
 30
0.0
 11
11052.8447712991
 21
82107.374924037547
 31
0.0
  0
LINE
  5
D7
  8
CENTER
  6
CENTER
 62
     6
 10
9996.5343147523236
 20
81509.356248494296
 30
0.0
 11
10126.996338187309
 21
81509.356248494296
 31
0.0
  0
LINE
  5
D8
  8
HONTAI
 62
     2
 10
11435.869912758521
 20
81874.469789490104
 30
0.0
 11
11435.869912758521
 21
81689.356248494296
 31
0.0
  0
LINE
  5
D9
  8
HONTAI
 62
     2
 10
7197.1052607388701
 20
81334.356248494296
 30
0.0
 11
8779.3930214383872
 21
81334.356248494296
 31
0.0
  0
LINE
  5
DA
  8
HONTAI
 62
     2
 10
7197.1052607388701
 20
81414.356248494296
 30
0.0
 11
8779.3930214383872
 21
81414.356248494296
 31
0.0
  0
LINE
  5
DB
  8
HONTAI
 62
     2
 10
8779.3930214383872
 20
81604.356248494296
 30
0.0
 11
8779.3930214383872
 21
81474.87412101432
 31
0.0
  0
LINE
  5
DC
  8
HONTAI
 62
     2
 10
7197.1052607388701
 20
81414.356248494296
 30
0.0
 11
7197.1052607388701
 21
81334.356248494296
 31
0.0
  0
LINE
  5
DD
  8
HONTAI
 62
     2
 10
8627.4952672192594
 20
81604.356248494296
 30
0.0
 11
8627.4952672192594
 21
81414.356248494296
 31
0.0
  0
LINE
  5
DE
  8
HONTAI
 62
     2
 10
8582.0262688137591
 20
81604.356248494296
 30
0.0
 11
8582.0262688137591
 21
81414.356248494296
 31
0.0
  0
LINE
  5
DF
  8
HONTAI
 62
     2
 10
8044.6647268959223
 20
81604.356248494296
 30
0.0
 11
8044.6647268959223
 21
81414.356248494296
 31
0.0
  0
LINE
  5
E0
  8
HONTAI
 62
     2
 10
8090.133725301479
 20
81604.356248494296
 30
0.0
 11
8090.133725301479
 21
81414.356248494296
 31
0.0
  0
LINE
  5
E1
  8
HONTAI
 62
     2
 10
8090.133725301479
 20
81526.395277525706
 30
0.0
 11
8779.3930214383872
 21
81526.395277525706
 31
0.0
  0
LINE
  5
E2
  8
HONTAI
 62
     2
 10
8627.4952672192594
 20
81454.874121014334
 30
0.0
 11
8759.3930214383872
 21
81454.874121014334
 31
0.0
  0
ARC
  5
E3
  8
HONTAI
 62
     2
 10
8759.3930214383872
 20
81474.87412101432
 30
0.0
 40
20.0
 50
270.0
 51
0.0
  0
LINE
  5
E4
  8
HONTAI
 62
     2
 10
8779.3930214383872
 20
81414.356248494296
 30
0.0
 11
8779.3930214383872
 21
81334.356248494296
 31
0.0
  0
ARC
  5
E5
  8
SAIBU
 10
8231.548365343886
 20
81474.87412101432
 30
0.0
 40
20.0
 50
270.0
 51
0.0
  0
LINE
  5
E6
  8
SAIBU
 10
8090.133725301479
 20
81454.874121014334
 30
0.0
 11
8231.548365343886
 21
81454.874121014334
 31
0.0
  0
LINE
  5
E7
  8
SAIBU
 10
8251.5483653438278
 20
81526.395277525706
 30
0.0
 11
8251.548365343886
 21
81474.87412101432
 31
0.0
  0
LINE
  5
E8
  8
HONTAI
 62
     2
 10
7197.1052607388701
 20
81526.395277525706
 30
0.0
 11
7969.1114840364899
 21
81526.395277525706
 31
0.0
  0
LINE
  5
E9
  8
HONTAI
 62
     2
 10
7988.0012521482431
 20
81684.356248494296
 30
0.0
 11
7988.0012521482431
 21
81604.356248494296
 31
0.0
  0
LINE
  5
EA
  8
HONTAI
 62
     2
 10
7988.0012521482431
 20
81604.356248494296
 30
0.0
 11
7969.1114840364899
 21
81526.395277525706
 31
0.0
  0
LINE
  5
EB
  8
SAIBU
 10
7953.7709006773657
 20
81526.395277525706
 30
0.0
 11
7929.6017780458778
 21
81426.64560052281
 31
0.0
  0
LINE
  5
EC
  8
SAIBU
 10
7258.7102625282132
 20
81526.395277525706
 30
0.0
 11
7258.7102625282132
 21
81433.521439589167
 31
0.0
  0
LINE
  5
ED
  8
SAIBU
 10
7466.671610136983
 20
81526.395277525706
 30
0.0
 11
7444.1684878634396
 21
81433.521439589167
 31
0.0
  0
LINE
  5
EE
  8
SAIBU
 10
7775.1548139723009
 20
81526.395277525706
 30
0.0
 11
7775.1548139723009
 21
81426.64560052281
 31
0.0
  0
LINE
  5
EF
  8
SAIBU
 10
7775.1548139723009
 20
81426.64560052281
 30
0.0
 11
7929.6017780458778
 21
81426.64560052281
 31
0.0
  0
LINE
  5
F0
  8
SAIBU
 10
8044.6647268959223
 20
81545.183525446497
 30
0.0
 11
8090.133725301479
 21
81545.183525446497
 31
0.0
  0
LINE
  5
F1
  8
SAIBU
 10
8044.6647268959223
 20
81475.054807527165
 30
0.0
 11
8090.133725301479
 21
81475.054807527165
 31
0.0
  0
LINE
  5
F2
  8
SAIBU
 10
7517.7446824788931
 20
81284.356248494296
 30
0.0
 11
8521.7641352392984
 21
81284.356248494296
 31
0.0
  0
LINE
  5
F3
  8
SAIBU
 10
7517.7446824788931
 20
81334.356248494296
 30
0.0
 11
7517.7446824788931
 21
81284.356248494296
 31
0.0
  0
LINE
  5
F4
  8
SAIBU
 10
8521.7641352392984
 20
81334.356248494296
 30
0.0
 11
8521.7641352392984
 21
81284.356248494296
 31
0.0
  0
LINE
  5
F5
  8
SAIBU
 10
7574.0758316245629
 20
81334.356248494296
 30
0.0
 11
7574.0758316245629
 21
81284.356248494296
 31
0.0
  0
LINE
  5
F6
  8
SAIBU
 10
7633.7206161123477
 20
81334.356248494296
 30
0.0
 11
7633.7206161123477
 21
81284.356248494296
 31
0.0
  0
LINE
  5
F7
  8
SAIBU
 10
8401.526820287283
 20
81334.356248494296
 30
0.0
 11
8401.526820287283
 21
81284.356248494296
 31
0.0
  0
LINE
  5
F8
  8
SAIBU
 10
8379.9223175478419
 20
81334.356248494296
 30
0.0
 11
8379.9223175478419
 21
81284.356248494296
 31
0.0
  0
LINE
  5
F9
  8
SAIBU
 10
6455.8699127585287
 20
82344.356248494296
 30
0.0
 11
6455.8699127585287
 21
83614.356248494296
 31
0.0
  0
LINE
  5
FA
  8
HONTAI
 62
     2
 10
7055.8699127585278
 20
82364.356248494296
 30
0.0
 11
7055.8699127585278
 21
82804.356248494296
 31
0.0
  0
LINE
  5
FB
  8
HONTAI
 62
     2
 10
7155.8699127585287
 20
82257.009266262015
 30
0.0
 11
7155.8699127585287
 21
82663.678397779586
 31
0.0
  0
LINE
  5
FC
  8
HONTAI
 62
     2
 10
7055.8699127585278
 20
82804.356248494296
 30
0.0
 11
7001.7223381492067
 21
83577.893028627674
 31
0.0
  0
ARC
  5
FD
  8
HONTAI
 62
     2
 10
6268.9394413668779
 20
77540.842006725085
 30
0.0
 40
6263.5280346879354
 50
85.127590411151246
 51
95.778845501163261
  0
ARC
  5
FE
  8
HONTAI
 62
     2
 10
5653.3746325775282
 20
83623.300802072219
 30
0.0
 40
150.0
 50
95.778845501163261
 51
158.2266945107888
  0
ARC
  5
FF
  8
HONTAI
 62
     2
 10
6782.2593653780059
 20
83562.530620533696
 30
0.0
 40
220.0
 50
4.0041729403170567
 51
85.127590411151246
  0
ARC
  5
100
  8
SAIBU
 10
6962.2185795317046
 20
83574.737335732498
 30
0.0
 40
39.630620552321638
 50
3.3071401219189962
 51
91.392740993304812
  0
LINE
  5
101
  8
SAIBU
 10
6089.1646316418191
 20
83656.247282318363
 30
0.0
 11
6981.300032840576
 21
83656.247282318363
 31
0.0
  0
ARC
  5
102
  8
SAIBU
 10
6089.1646316418191
 20
83791.334942442525
 30
0.0
 40
135.0876601242071
 50
177.82745322319309
 51
270.0
  0
LINE
  5
103
  8
HONTAI
 62
     2
 10
5693.1852187410695
 20
83608.585549000345
 30
0.0
 11
5672.7911745081074
 21
83775.935485193797
 31
0.0
  0
LINE
  5
104
  8
SAIBU
 10
5204.68252975418
 20
82904.356248494296
 30
0.0
 11
5304.9526415184373
 21
82893.182784606761
 31
0.0
  0
LINE
  5
105
  8
SAIBU
 10
5618.3565092461058
 20
83578.843100685452
 30
0.0
 11
5356.9229869524133
 21
82924.328449355264
 31
0.0
  0
ARC
  5
106
  8
SAIBU
 10
5571.9235717956899
 20
83597.389861042087
 30
0.0
 40
50.0
 50
338.22669451078878
 51
71.033369432467452
  0
ARC
  5
107
  8
SAIBU
 10
5310.4900495019974
 20
82942.875209711769
 30
0.0
 40
50.0
 50
263.64155451775719
 51
338.22669451078878
  0
ARC
  5
108
  8
SAIBU
 10
5571.9235717956899
 20
83597.389861042087
 30
0.0
 40
75.0
 50
338.22669451078878
 51
71.033369432467452
  0
LINE
  5
109
  8
SAIBU
 10
5523.1296924250792
 20
83693.464820994006
 30
0.0
 11
5596.2998785314267
 21
83668.317963159119
 31
0.0
  0
LINE
  5
10A
  8
SAIBU
 10
5641.5729779713429
 20
83569.569720507192
 30
0.0
 11
5380.1394556775931
 21
82915.055069176888
 31
0.0
  0
ARC
  5
10B
  8
SAIBU
 10
5310.4900495019974
 20
82942.875209711769
 30
0.0
 40
75.0
 50
285.9320283934855
 51
338.22669451078878
  0
LINE
  5
10C
  8
SAIBU
 10
5111.0164142824942
 20
82807.937096457288
 30
0.0
 11
5331.0773087624702
 21
82870.756108523987
 31
0.0
  0
LINE
  5
10D
  8
SAIBU
 10
5693.1852187410695
 20
83608.585549000345
 30
0.0
 11
5352.0796400874378
 21
82754.607080896807
 31
0.0
  0
LINE
  5
10E
  8
SAIBU
 10
5670.5933768426767
 20
83463.744624065395
 30
0.0
 11
5467.0853895964683
 21
82958.222868328026
 31
0.0
  0
LINE
  5
10F
  8
SAIBU
 10
5513.5183270468851
 20
82889.676107971405
 30
0.0
 11
5832.7731308473158
 21
82889.676107971405
 31
0.0
  0
ARC
  5
110
  8
SAIBU
 10
5513.5183270468851
 20
82939.676107971405
 30
0.0
 40
50.0
 50
158.2266945107888
 51
270.0
  0
ARC
  5
111
  8
SAIBU
 10
5832.7731308473158
 20
82939.676107971405
 30
0.0
 40
50.0
 50
270.0
 51
0.0
  0
ARC
  5
112
  8
SAIBU
 10
5956.9736280027419
 20
82939.676107971405
 30
0.0
 40
50.0
 50
180.0
 51
270.0
  0
ARC
  5
113
  8
SAIBU
 10
6245.8699127585278
 20
82939.676107971405
 30
0.0
 40
50.0
 50
270.0
 51
0.0
  0
LINE
  5
114
  8
SAIBU
 10
5706.8196334897084
 20
83558.735255590349
 30
0.0
 11
5706.8196334897084
 21
83548.946560400305
 31
0.0
  0
LINE
  5
115
  8
SAIBU
 10
6295.8699127585278
 20
83558.735255590349
 30
0.0
 11
6295.8699127585278
 21
83548.946560400305
 31
0.0
  0
LINE
  5
116
  8
SAIBU
 10
5736.8196334897084
 20
83588.735255590349
 30
0.0
 11
6265.8699127585278
 21
83588.735255590349
 31
0.0
  0
ARC
  5
117
  8
SAIBU
 10
5736.8196334897084
 20
83558.735255590349
 30
0.0
 40
30.0
 50
90.0
 51
180.0
  0
ARC
  5
118
  8
SAIBU
 10
6265.8699127585278
 20
83558.735255590349
 30
0.0
 40
30.0
 50
0.0
 51
90.0
  0
LINE
  5
119
  8
SAIBU
 10
5736.8196334897084
 20
83518.946560400305
 30
0.0
 11
6265.8699127585278
 21
83518.946560400305
 31
0.0
  0
ARC
  5
11A
  8
SAIBU
 10
5736.8196334897084
 20
83548.946560400305
 30
0.0
 40
30.0
 50
180.0
 51
270.0
  0
ARC
  5
11B
  8
SAIBU
 10
6265.8699127585278
 20
83548.946560400305
 30
0.0
 40
30.0
 50
270.0
 51
0.0
  0
LINE
  5
11C
  8
SAIBU
 10
6337.5125148615907
 20
83614.356248494296
 30
0.0
 11
6337.5125148615907
 21
82932.603476677497
 31
0.0
  0
LINE
  5
11D
  8
SAIBU
 10
6337.5125148615907
 20
82932.603476677497
 30
0.0
 11
6384.321097235661
 21
82800.545637094707
 31
0.0
  0
LINE
  5
11E
  8
SAIBU
 10
6384.321097235661
 20
82800.545637094707
 30
0.0
 11
6384.321097235661
 21
82344.356248494296
 31
0.0
  0
LINE
  5
11F
  8
HONTAI
 62
     2
 10
6208.2707961843107
 20
82184.356248494296
 30
0.0
 11
6875.8699127585278
 21
82184.356248494296
 31
0.0
  0
LINE
  5
120
  8
HONTAI
 62
     2
 10
6208.2707961843107
 20
82264.356248494296
 30
0.0
 11
7025.5362082294887
 21
82264.356248494296
 31
0.0
  0
LINE
  5
121
  8
HONTAI
 62
     2
 10
6121.9043293120922
 20
82134.762928607233
 30
0.0
 11
5994.8468859549612
 21
81917.063559238275
 31
0.0
  0
LINE
  5
122
  8
HONTAI
 62
     2
 10
6052.81115581427
 20
82175.088272697583
 30
0.0
 11
5902.2183428441649
 21
81917.063559238275
 31
0.0
  0
LINE
  5
123
  8
HONTAI
 62
     2
 10
5108.696399374574
 20
81917.063559238275
 30
0.0
 11
6076.9739014169309
 21
81917.063559238275
 31
0.0
  0
ARC
  5
124
  8
HONTAI
 62
     2
 10
6208.2707961843107
 20
82084.356248494296
 30
0.0
 40
180.0
 50
90.0
 51
149.7305758820884
  0
ARC
  5
125
  8
HONTAI
 62
     2
 10
6208.2707961843107
 20
82084.356248494296
 30
0.0
 40
100.0
 50
90.0
 51
149.7305758820884
  0
LINE
  5
126
  8
SAIBU
 10
6208.2707961843107
 20
82344.356248494296
 30
0.0
 11
7054.7553509584968
 21
82344.356248494296
 31
0.0
  0
LINE
  5
127
  8
SAIBU
 10
6020.6541657913476
 20
82264.356248494296
 30
0.0
 11
5108.7849389798357
 21
82264.356248494296
 31
0.0
  0
ARC
  5
128
  8
SAIBU
 10
6208.2707961843107
 20
82084.356248494296
 30
0.0
 40
260.0
 50
90.0
 51
136.18693853902141
  0
LINE
  5
129
  8
SAIBU
 10
5099.8437906504842
 20
82754.607080896807
 30
0.0
 11
5352.0796400874378
 21
82754.607080896807
 31
0.0
  0
LINE
  5
12A
  8
SAIBU
 10
5352.0796400874378
 20
82754.607080896807
 30
0.0
 11
5352.0796400873814
 21
82264.356248494296
 31
0.0
  0
LINE
  5
12B
  8
SAIBU
 10
6307.7636591715273
 20
82397.961996107886
 30
0.0
 11
6238.5970149610648
 21
82397.961996107886
 31
0.0
  0
LINE
  5
12C
  8
SAIBU
 10
6307.7636591715273
 20
82397.961996107886
 30
0.0
 11
6323.3695769998594
 21
82426.549618839825
 31
0.0
  0
LINE
  5
12D
  8
SAIBU
 10
6238.5970149610648
 20
82397.961996107886
 30
0.0
 11
6225.4219486418879
 21
82422.096675627807
 31
0.0
  0
LINE
  5
12E
  8
SAIBU
 10
6238.5970149610648
 20
82475.026911470733
 30
0.0
 11
6225.4219486418879
 21
82450.892231950711
 31
0.0
  0
LINE
  5
12F
  8
SAIBU
 10
6307.7636591715273
 20
82475.026911470733
 30
0.0
 11
6323.3695769998594
 21
82446.439288738708
 31
0.0
  0
LINE
  5
130
  8
SAIBU
 10
6307.7636591715273
 20
82475.026911470733
 30
0.0
 11
6238.5970149610648
 21
82475.026911470733
 31
0.0
  0
LINE
  5
131
  8
SAIBU
 10
6384.3210972357192
 20
82663.678397779586
 30
0.0
 11
5830.0653466608492
 21
82663.678397779586
 31
0.0
  0
LINE
  5
132
  8
SAIBU
 10
5830.0653466608492
 20
82745.073391544807
 30
0.0
 11
5830.0653466608492
 21
82457.090428043666
 31
0.0
  0
LINE
  5
133
  8
SAIBU
 10
5800.0653466608492
 20
82427.090428043666
 30
0.0
 11
5618.9582093604258
 21
82427.090428043666
 31
0.0
  0
LINE
  5
134
  8
SAIBU
 10
5588.9582093604258
 20
82457.090428043666
 30
0.0
 11
5588.9582093604258
 21
82637.884196055296
 31
0.0
  0
LINE
  5
135
  8
SAIBU
 10
5592.7673397933249
 20
82652.514245656028
 30
0.0
 11
5652.642528078286
 21
82759.703441145539
 31
0.0
  0
LINE
  5
136
  8
SAIBU
 10
5678.8333976453287
 20
82775.073391544807
 30
0.0
 11
5800.0653466608492
 21
82775.073391544807
 31
0.0
  0
ARC
  5
137
  8
SAIBU
 10
5800.0653466608492
 20
82745.073391544807
 30
0.0
 40
30.0
 50
0.0
 51
90.0
  0
ARC
  5
138
  8
SAIBU
 10
5678.8333976453287
 20
82745.073391544807
 30
0.0
 40
30.0
 50
90.0
 51
150.8125581118091
  0
ARC
  5
139
  8
SAIBU
 10
5618.9582093604258
 20
82637.884196055296
 30
0.0
 40
30.0
 50
150.8125581118091
 51
180.0
  0
ARC
  5
13A
  8
SAIBU
 10
5618.9582093604258
 20
82457.090428043666
 30
0.0
 40
30.0
 50
180.0
 51
270.0
  0
ARC
  5
13B
  8
SAIBU
 10
5800.0653466608492
 20
82457.090428043666
 30
0.0
 40
30.0
 50
270.0
 51
0.0
  0
LINE
  5
13C
  8
SAIBU
 10
5599.0035626457538
 20
82663.678397779586
 30
0.0
 11
5080.7942564783152
 21
82663.678397779586
 31
0.0
  0
LINE
  5
13D
  8
SAIBU
 10
6528.0570619258788
 20
82714.800114763435
 30
0.0
 11
6528.0570619258788
 21
83483.777302327799
 31
0.0
  0
LINE
  5
13E
  8
SAIBU
 10
6938.9376821872429
 20
82718.29157114838
 30
0.0
 11
6885.1092790577677
 21
83487.268758712744
 31
0.0
  0
LINE
  5
13F
  8
SAIBU
 10
6578.0570619258788
 20
83533.777302327799
 30
0.0
 11
6835.2313307006843
 21
83533.777302327799
 31
0.0
  0
LINE
  5
140
  8
SAIBU
 10
6578.0570619258788
 20
82664.800114763435
 30
0.0
 11
6889.0597338301604
 21
82664.800114763435
 31
0.0
  0
ARC
  5
141
  8
SAIBU
 10
6578.0570619258788
 20
83483.777302327799
 30
0.0
 40
50.0
 50
90.0
 51
180.0
  0
ARC
  5
142
  8
SAIBU
 10
6835.2313307006843
 20
83483.777302327799
 30
0.0
 40
50.0
 50
4.0041729403170567
 51
90.0
  0
ARC
  5
143
  8
SAIBU
 10
6889.0597338301604
 20
82714.800114763435
 30
0.0
 40
50.0
 50
270.0
 51
4.0041729403170567
  0
ARC
  5
144
  8
SAIBU
 10
6578.0570619258788
 20
82714.800114763435
 30
0.0
 40
50.0
 50
180.0
 51
270.0
  0
ARC
  5
145
  8
HONTAI
 62
     2
 10
6875.8699127585278
 20
82364.356248494296
 30
0.0
 40
180.0
 50
270.0
 51
0.0
  0
LINE
  5
146
  8
HONTAI
 62
     2
 10
5055.8699127585269
 20
82264.356248494296
 30
0.0
 11
5108.696399374574
 21
81917.063559238275
 31
0.0
  0
LINE
  5
147
  8
HONTAI
 62
     2
 10
5233.2320769757498
 20
81561.331774814462
 30
0.0
 11
5818.5373303575907
 21
81561.331774814462
 31
0.0
  0
LINE
  5
148
  8
HONTAI
 62
     2
 10
5108.696399374574
 20
81917.063559238275
 30
0.0
 11
5133.6729344897321
 21
81651.952161418798
 31
0.0
  0
ARC
  5
149
  8
HONTAI
 62
     2
 10
5233.2320769757498
 20
81661.331774814462
 30
0.0
 40
100.0
 50
185.3820339698905
 51
270.0
  0
LINE
  5
14A
  8
HONTAI
 62
     2
 10
5848.5373303575898
 20
81761.925004364093
 30
0.0
 11
5848.5373303575898
 21
81591.331774814476
 31
0.0
  0
ARC
  5
14B
  8
HONTAI
 62
     2
 10
6020.6717624416924
 20
81761.925004364093
 30
0.0
 40
172.13443208408711
 50
115.6752941411267
 51
180.0
  0
ARC
  5
14C
  8
HONTAI
 62
     2
 10
5818.5373303575907
 20
81591.331774814476
 30
0.0
 40
30.0
 50
270.0
 51
0.0
  0
LINE
  5
14D
  8
HONTAI
 62
     2
 10
5352.0796400873814
 20
82264.356248494296
 30
0.0
 11
5393.6696839442602
 21
81917.063559238275
 31
0.0
  0
LINE
  5
14E
  8
HONTAI
 62
     2
 10
5393.6696839442602
 20
81917.063559238275
 30
0.0
 11
5414.0430271046362
 21
81561.331774814462
 31
0.0
  0
LINE
  5
14F
  8
HONTAI
 62
     2
 10
5290.7679630362536
 20
82264.356248494296
 30
0.0
 11
5332.3580068930751
 21
81917.063559238275
 31
0.0
  0
LINE
  5
150
  8
HONTAI
 62
     2
 10
5332.3580068930751
 20
81917.063559238159
 30
0.0
 11
5352.7313500535101
 21
81561.331774814345
 31
0.0
  0
LINE
  5
151
  8
HONTAI
 62
     2
 10
7055.8699127585278
 20
82663.678397779586
 30
0.0
 11
7155.8699127585287
 21
82663.678397779586
 31
0.0
  0
LINE
  5
152
  8
HONTAI
 62
     2
 10
7055.8699127585278
 20
82450.699296405655
 30
0.0
 11
7155.8699127585287
 21
82450.699296405655
 31
0.0
  0
LINE
  5
153
  8
SAIBU
 10
6771.948373623658
 20
81971.003565846244
 30
0.0
 11
7087.2977058658153
 21
81971.003565846186
 31
0.0
  0
LINE
  5
154
  8
SAIBU
 10
6757.470523441677
 20
82184.356248494296
 30
0.0
 11
6757.470523441677
 21
81981.240929871157
 31
0.0
  0
LINE
  5
155
  8
SAIBU
 10
6682.8497464241809
 20
82184.356248494296
 30
0.0
 11
6682.8497464241809
 21
82023.820029502851
 31
0.0
  0
LINE
  5
156
  8
SAIBU
 10
7185.8699127585278
 20
81913.835905589222
 30
0.0
 11
7185.8699127585278
 21
82167.183177063183
 31
0.0
  0
ARC
  5
157
  8
SAIBU
 10
7155.8699127585287
 20
82237.861976411019
 30
0.0
 40
19.147289850960028
 50
8.5587197741645902
 51
198.09885424643181
  0
LINE
  5
158
  8
SAIBU
 10
7185.8699127585278
 20
82167.183177063183
 30
0.0
 11
7174.8039757285151
 21
82240.711532180474
 31
0.0
  0
ARC
  5
159
  8
SAIBU
 10
6660.8354055715026
 20
82139.776073645975
 30
0.0
 40
485.65478666110482
 50
341.22942696946888
 51
11.478445485186439
  0
LINE
  5
15A
  8
SAIBU
 10
6925.9925591810606
 20
82191.475595107026
 30
0.0
 11
7185.8699127585278
 21
81913.835905589222
 31
0.0
  0
LINE
  5
15B
  8
SAIBU
 10
6887.2570400132099
 20
82184.716794774125
 30
0.0
 11
7140.8079957080772
 21
81913.835905589222
 31
0.0
  0
LINE
  5
15C
  8
SAIBU
 10
7185.8699127585278
 20
81913.835905589222
 30
0.0
 11
7140.8079957080772
 21
81913.835905589222
 31
0.0
  0
LINE
  5
15D
  8
SAIBU
 10
7185.8699127585278
 20
81971.003565846186
 30
0.0
 11
7257.8363590873196
 21
81971.003565846186
 31
0.0
  0
ARC
  5
15E
  8
HONTAI
 62
     2
 10
7237.9176890116651
 20
81449.998956765572
 30
0.0
 40
150.0
 50
180.0
 51
309.56060026142683
  0
ARC
  5
15F
  8
HONTAI
 62
     2
 10
7237.9176890116651
 20
81449.998956765572
 30
0.0
 40
70.0
 50
180.0
 51
234.33572915660051
  0
LINE
  5
160
  8
HONTAI
 62
     2
 10
7087.9176890116651
 20
81449.998956765572
 30
0.0
 11
7087.9176890116651
 21
81970.341207523175
 31
0.0
  0
LINE
  5
161
  8
HONTAI
 62
     2
 10
7167.9176890116651
 20
81449.998956765572
 30
0.0
 11
7167.9176890116651
 21
81913.835905589222
 31
0.0
  0
LINE
  5
162
  8
SAIBU
 10
6966.4979052412091
 20
81698.993503836216
 30
0.0
 11
7087.9176890116651
 21
81698.993503836275
 31
0.0
  0
LINE
  5
163
  8
SAIBU
 10
6990.8699127585278
 20
81489.356248494296
 30
0.0
 11
7087.9176890116651
 21
81489.356248494296
 31
0.0
  0
LINE
  5
164
  8
SAIBU
 10
6989.6430205782517
 20
81453.144794941225
 30
0.0
 11
7087.9176890116651
 21
81453.144794941225
 31
0.0
  0
LINE
  5
165
  8
SAIBU
 10
6929.3912337628844
 20
81290.353118886895
 30
0.0
 11
7159.5623354053823
 21
81290.353118886895
 31
0.0
  0
LINE
  5
166
  8
SAIBU
 10
6962.2664335296413
 20
81366.765507865159
 30
0.0
 11
7089.7375976181347
 21
81366.765507865173
 31
0.0
  0
ARC
  5
167
  8
SAIBU
 10
7089.6709072377998
 20
81388.781324578275
 30
0.0
 40
22.015917722224849
 50
270.17356002130509
 51
324.12267576499988
  0
ARC
  5
168
  8
SAIBU
 10
7160.385681218525
 20
81317.756114491916
 30
0.0
 40
27.4153618698621
 50
268.27901835992702
 51
341.64142727481152
  0
LINE
  5
169
  8
SAIBU
 10
7167.9176890116651
 20
81845.204778140236
 30
0.0
 11
7188.5899986600843
 21
81855.225156163986
 31
0.0
  0
LINE
  5
16A
  8
SAIBU
 10
7188.5899986600843
 20
81855.225156163986
 30
0.0
 11
7223.6899017280657
 21
81684.356248494296
 31
0.0
  0
LINE
  5
16B
  8
SAIBU
 10
7167.9176890116651
 20
81552.107570112159
 30
0.0
 11
7197.1052607388701
 21
81552.107570112159
 31
0.0
  0
LINE
  5
16C
  8
SAIBU
 10
7167.9176890116651
 20
81514.531084826973
 30
0.0
 11
7218.6755516785188
 21
81514.531084826973
 31
0.0
  0
LINE
  5
16D
  8
SAIBU
 10
7167.9176890116651
 20
81486.974842173455
 30
0.0
 11
7218.6755516785188
 21
81486.974842173455
 31
0.0
  0
LINE
  5
16E
  8
SAIBU
 10
7218.6755516785188
 20
81486.974842173455
 30
0.0
 11
7218.6755516785188
 21
81526.395277525706
 31
0.0
  0
LINE
  5
16F
  8
HONTAI
 62
     2
 10
5466.4431216429221
 20
81685.638821670029
 30
0.0
 11
5784.5879986755317
 21
81685.638821670029
 31
0.0
  0
LINE
  5
170
  8
HONTAI
 62
     2
 10
5848.5373303575898
 20
81591.331774814476
 30
0.0
 11
5827.2627104358398
 21
81654.917091039068
 31
0.0
  0
LINE
  5
171
  8
HONTAI
 62
     2
 10
5423.0124774228307
 20
81652.419277629975
 30
0.0
 11
5411.2994117090129
 21
81609.237078955455
 31
0.0
  0
ARC
  5
172
  8
HONTAI
 62
     2
 10
5466.4431216429221
 20
81640.638821670029
 30
0.0
 40
45.0
 50
90.0
 51
164.82382310318161
  0
ARC
  5
173
  8
HONTAI
 62
     2
 10
5784.5879986755317
 20
81640.638821670029
 30
0.0
 40
45.0
 50
18.49940902053708
 51
90.0
  0
LINE
  5
174
  8
HONTAI
 62
     2
 10
5930.6785266603119
 20
81591.331774814476
 30
0.0
 11
5444.0430271046353
 21
81591.331774814476
 31
0.0
  0
ARC
  5
175
  8
HONTAI
 62
     2
 10
5444.0430271046353
 20
81561.331774814462
 30
0.0
 40
29.999999999996358
 50
90.0
 51
180.0
  0
LINE
  5
176
  8
HONTAI
 62
     2
 10
5688.8033169045812
 20
81489.821328155973
 30
0.0
 11
5703.0559945846908
 21
81514.881206799299
 31
0.0
  0
LINE
  5
177
  8
SAIBU
 10
5688.8033169045812
 20
81489.821328155973
 30
0.0
 11
5648.1321164774117
 21
81561.331774814462
 31
0.0
  0
LINE
  5
178
  8
SAIBU
 10
5668.0018641514471
 20
81526.395640246512
 30
0.0
 11
5709.6047696577152
 21
81526.395640246512
 31
0.0
  0
ARC
  5
179
  8
SAIBU
 10
6042.0544340621573
 20
82666.058084045129
 30
0.0
 40
1228.1364979828941
 50
253.28377138983541
 51
264.42860737085391
  0
ARC
  5
17A
  8
SAIBU
 10
5932.6993984675501
 20
82885.833074196416
 30
0.0
 40
1403.7911047884561
 50
260.28557244873309
 51
269.51918681864453
  0
LINE
  5
17B
  8
SAIBU
 10
5703.0559945846908
 20
81514.881206799299
 30
0.0
 11
5729.4745173318079
 21
81561.331774814462
 31
0.0
  0
LINE
  5
17C
  8
SAIBU
 10
5452.5755657917471
 20
81561.331774814462
 30
0.0
 11
5473.4347293131859
 21
81529.006137593824
 31
0.0
  0
LINE
  5
17D
  8
SAIBU
 10
5473.4347293131859
 20
81529.006137593824
 30
0.0
 11
5611.426497647888
 21
81520.989970567112
 31
0.0
  0
LINE
  5
17E
  8
SAIBU
 10
5611.426497647888
 20
81520.989970567112
 30
0.0
 11
5633.8902823733524
 21
81493.734569420994
 31
0.0
  0
LINE
  5
17F
  8
SAIBU
 10
5633.8902823733524
 20
81493.734569420994
 30
0.0
 11
5686.5776809696108
 21
81493.734569420994
 31
0.0
  0
LINE
  5
180
  8
SAIBU
 10
5818.5373303575907
 20
81561.331774814462
 30
0.0
 11
5709.6047696577152
 21
81526.395640246512
 31
0.0
  0
LINE
  5
181
  8
SAIBU
 10
6360.5959065665957
 20
82184.356248494296
 30
0.0
 11
6360.5959065665957
 21
82065.804597094786
 31
0.0
  0
LINE
  5
182
  8
SAIBU
 10
6049.6471827461501
 20
82010.958019393147
 30
0.0
 11
6203.2501002238723
 21
82010.958019393147
 31
0.0
  0
LINE
  5
183
  8
HONTAI
 62
     2
 10
5080.7942564783152
 20
82663.678397779586
 30
0.0
 11
5055.8699127585269
 21
82616.191205637471
 31
0.0
  0
LINE
  5
184
  8
HONTAI
 62
     2
 10
5115.8699127585278
 20
82556.191205637413
 30
0.0
 11
5115.8699127585278
 21
82324.356248494296
 31
0.0
  0
ARC
  5
185
  8
HONTAI
 62
     2
 10
5055.8699127585269
 20
82556.191205637413
 30
0.0
 40
60.000000000014552
 50
0.0
 51
90.0
  0
ARC
  5
186
  8
HONTAI
 62
     2
 10
5055.8699127585269
 20
82324.356248494296
 30
0.0
 40
60.000000000014552
 50
270.0
 51
0.0
  0
LINE
  5
187
  8
SAIBU
 10
5055.8699127585269
 20
82571.962710852094
 30
0.0
 11
5113.7599777374417
 21
82571.962710852094
 31
0.0
  0
LINE
  5
188
  8
SAIBU
 10
5055.8699127585269
 20
82521.962710852094
 30
0.0
 11
5115.8699127585278
 21
82521.962710852094
 31
0.0
  0
LINE
  5
189
  8
SAIBU
 10
5055.8699127585269
 20
82471.962710852094
 30
0.0
 11
5115.8699127585278
 21
82471.962710852094
 31
0.0
  0
LINE
  5
18A
  8
SAIBU
 10
5055.8699127585269
 20
82421.962710852094
 30
0.0
 11
5115.8699127585278
 21
82421.962710852094
 31
0.0
  0
LINE
  5
18B
  8
SAIBU
 10
5055.8699127585269
 20
82371.962710852094
 30
0.0
 11
5115.8699127585278
 21
82371.962710852094
 31
0.0
  0
LINE
  5
18C
  8
SAIBU
 10
5055.8699127585269
 20
82321.962710852094
 30
0.0
 11
5115.8699127585278
 21
82321.962710852094
 31
0.0
  0
LINE
  5
18D
  8
SAIBU
 10
5055.8699127585269
 20
82306.482354361797
 30
0.0
 11
5113.1457707489599
 21
82306.482354361797
 31
0.0
  0
LINE
  5
18E
  8
SAIBU
 10
5055.8699127585269
 20
82356.482354361797
 30
0.0
 11
5115.8699127585278
 21
82356.482354361797
 31
0.0
  0
LINE
  5
18F
  8
SAIBU
 10
5055.8699127585269
 20
82406.482354361797
 30
0.0
 11
5115.8699127585278
 21
82406.482354361797
 31
0.0
  0
LINE
  5
190
  8
SAIBU
 10
5055.8699127585269
 20
82456.482354361797
 30
0.0
 11
5115.8699127585278
 21
82456.482354361797
 31
0.0
  0
LINE
  5
191
  8
SAIBU
 10
5055.8699127585269
 20
82506.482354361797
 30
0.0
 11
5115.8699127585278
 21
82506.482354361797
 31
0.0
  0
LINE
  5
192
  8
SAIBU
 10
5055.8699127585269
 20
82556.482354361797
 30
0.0
 11
5115.8699127585278
 21
82556.482354361797
 31
0.0
  0
LINE
  5
193
  8
SAIBU
 10
5055.8699127585269
 20
82321.962710852094
 30
0.0
 11
5055.8699127584696
 21
82264.356248494296
 31
0.0
  0
LINE
  5
194
  8
SAIBU
 10
5055.8699127585269
 20
82371.962710852094
 30
0.0
 11
5055.8699127585269
 21
82356.482354361797
 31
0.0
  0
LINE
  5
195
  8
SAIBU
 10
5055.8699127585269
 20
82421.962710852094
 30
0.0
 11
5055.8699127585269
 21
82406.482354361797
 31
0.0
  0
LINE
  5
196
  8
SAIBU
 10
5055.8699127585269
 20
82471.962710852094
 30
0.0
 11
5055.8699127585269
 21
82456.482354361797
 31
0.0
  0
LINE
  5
197
  8
SAIBU
 10
5055.8699127585269
 20
82521.962710852094
 30
0.0
 11
5055.8699127585269
 21
82506.482354361797
 31
0.0
  0
ARC
  5
198
  8
SAIBU
 10
5170.3529066785704
 20
82278.874860078387
 30
0.0
 40
115.3999392514614
 50
197.3438459480976
 51
274.34685439417558
  0
LINE
  5
199
  8
SAIBU
 10
5179.0995485127196
 20
82163.806870455446
 30
0.0
 11
5210.1461301859244
 21
81932.375722837707
 31
0.0
  0
LINE
  5
19A
  8
SAIBU
 10
5210.1461301859244
 20
81932.375722837707
 30
0.0
 11
5125.8774248299878
 21
81932.375722837707
 31
0.0
  0
ARC
  5
19B
  8
SAIBU
 10
5125.5332155227661
 20
81954.774081138021
 30
0.0
 40
22.401002981934418
 50
193.63456539546149
 51
270.88043007416258
  0
LINE
  5
19C
  8
SAIBU
 10
5193.7749318478736
 20
82604.177255135786
 30
0.0
 11
5249.4819027262856
 21
82604.177255135786
 31
0.0
  0
LINE
  5
19D
  8
SAIBU
 10
5279.4819027262856
 20
82574.177255135786
 30
0.0
 11
5279.4819027262856
 21
82375.250403698767
 31
0.0
  0
LINE
  5
19E
  8
SAIBU
 10
5193.7749318476417
 20
82345.250403698767
 30
0.0
 11
5249.4819027262856
 21
82345.250403698767
 31
0.0
  0
ARC
  5
19F
  8
SAIBU
 10
5733.7692809894206
 20
82474.713829416607
 30
0.0
 40
579.0782004057188
 50
169.56347057417909
 51
190.43652942582091
  0
ARC
  5
1A0
  8
SAIBU
 10
5193.7749318478736
 20
82574.177255135786
 30
0.0
 40
30.0
 50
90.0
 51
169.56347057417909
  0
ARC
  5
1A1
  8
SAIBU
 10
5193.7749318476417
 20
82375.250403698767
 30
0.0
 40
30.0
 50
190.43652942582091
 51
270.0
  0
ARC
  5
1A2
  8
SAIBU
 10
5249.4819027262856
 20
82375.250403698767
 30
0.0
 40
30.0
 50
270.0
 51
0.0
  0
ARC
  5
1A3
  8
SAIBU
 10
5249.4819027262856
 20
82574.177255135786
 30
0.0
 40
30.0
 50
0.0
 51
90.0
  0
ARC
  5
1A4
  8
SAIBU
 10
5055.8699127585269
 20
82556.191205637413
 30
0.0
 40
80.000000000014538
 50
0.0
 51
82.705563640464732
  0
LINE
  5
1A5
  8
SAIBU
 10
5135.8699127585278
 20
82556.191205637413
 30
0.0
 11
5135.8699127585278
 21
82324.356248494296
 31
0.0
  0
ARC
  5
1A6
  8
SAIBU
 10
5055.8699127585269
 20
82324.356248494296
 30
0.0
 40
80.000000000014538
 50
272.17306025728078
 51
0.0
  0
LINE
  5
1A7
  8
SAIBU
 10
5135.8699127585278
 20
82324.356248494296
 30
0.0
 11
5158.6208918913617
 21
82324.356248494296
 31
0.0
  0
ARC
  5
1A8
  8
SAIBU
 10
5061.5918136963164
 20
82316.739038988235
 30
0.0
 40
97.327611169862635
 50
327.43806359787101
 51
4.4887645349071006
  0
ARC
  5
1A9
  8
SAIBU
 10
5210.6151425213902
 20
82312.910752438998
 30
0.0
 40
82.739473811651465
 50
193.01362414165041
 51
215.93280295325849
  0
LINE
  5
1AA
  8
SAIBU
 10
5130.9103690956263
 20
82813.616063592315
 30
0.0
 11
5123.7488445157651
 21
82794.456501644279
 31
0.0
  0
LINE
  5
1AB
  8
SAIBU
 10
5123.7488445157651
 20
82794.456501644279
 30
0.0
 11
5108.1922333667171
 21
82794.456501644279
 31
0.0
  0
LINE
  5
1AC
  8
SAIBU
 10
5097.3190748747438
 20
82742.555915831064
 30
0.0
 11
5155.5193238245556
 21
82742.555915831064
 31
0.0
  0
LINE
  5
1AD
  8
SAIBU
 10
5083.2997093677986
 20
82675.637615773652
 30
0.0
 11
5141.2566276917933
 21
82675.637615773652
 31
0.0
  0
ARC
  5
1AE
  8
SAIBU
 10
5247.5336255667498
 20
82687.965262537997
 30
0.0
 40
106.9895843157434
 50
149.32000345351821
 51
186.61647990194879
  0
LINE
  5
1AF
  8
SAIBU
 10
7241.0366794609008
 20
81433.521439589167
 30
0.0
 11
7533.0774433659963
 21
81433.521439589167
 31
0.0
  0
LINE
  5
1B0
  8
SAIBU
 10
7533.0774433659963
 20
81433.521439589167
 30
0.0
 11
7533.077443365939
 21
81414.356248494296
 31
0.0
  0
LINE
  5
1B1
  8
SAIBU
 10
7241.0366794609008
 20
81433.521439589167
 30
0.0
 11
7241.0366794609008
 21
81414.356248494296
 31
0.0
  0
LINE
  5
1B2
  8
SAIBU
 10
7579.4045285134353
 20
81433.521439589167
 30
0.0
 11
7611.9846054137452
 21
81433.521439589167
 31
0.0
  0
LINE
  5
1B3
  8
SAIBU
 10
7579.4045285133761
 20
81433.521439589167
 30
0.0
 11
7579.4045285133761
 21
81414.356248494296
 31
0.0
  0
LINE
  5
1B4
  8
SAIBU
 10
7611.9846054137452
 20
81433.521439589167
 30
0.0
 11
7611.9846054137452
 21
81414.356248494296
 31
0.0
  0
LINE
  5
1B5
  8
SAIBU
 10
7698.8647083532414
 20
81433.521439589167
 30
0.0
 11
7698.8647083532414
 21
81414.356248494296
 31
0.0
  0
LINE
  5
1B6
  8
SAIBU
 10
7666.2846314529297
 20
81433.521439589167
 30
0.0
 11
7666.2846314529297
 21
81414.356248494296
 31
0.0
  0
LINE
  5
1B7
  8
SAIBU
 10
7666.2846314529297
 20
81433.521439589167
 30
0.0
 11
7698.8647083532414
 21
81433.521439589167
 31
0.0
  0
LINE
  5
1B8
  8
SAIBU
 10
6981.7688899167124
 20
82218.804173150624
 30
0.0
 11
7016.8692739356184
 21
82183.480860287498
 31
0.0
  0
ARC
  5
1B9
  8
SAIBU
 10
7029.0508075732496
 20
82194.841001865279
 30
0.0
 40
16.656607650795451
 50
223.00170487834859
 51
22.849392165229609
  0
ARC
  5
1BA
  8
SAIBU
 10
6997.9209870221684
 20
82196.772669570579
 30
0.0
 40
46.700202258127938
 50
5.5742613236552963
 51
77.293551724079762
  0
LINE
  5
1BB
  8
SAIBU
 10
7055.8699127585278
 20
82387.965484665285
 30
0.0
 11
7117.9683038783269
 21
82361.393960870046
 31
0.0
  0
LINE
  5
1BC
  8
SAIBU
 10
7117.9683038783269
 20
82361.393960870046
 30
0.0
 11
7117.9683038783269
 21
82309.769264720904
 31
0.0
  0
LINE
  5
1BD
  8
SAIBU
 10
7117.9683038783269
 20
82309.769264720904
 30
0.0
 11
7099.73303399823
 21
82299.140642209095
 31
0.0
  0
LINE
  5
1BE
  8
SAIBU
 10
7099.73303399823
 20
82299.140642209095
 30
0.0
 11
7099.73303399823
 21
82280.92016503698
 31
0.0
  0
LINE
  5
1BF
  8
HONTAI
 62
     2
 10
7099.73303399823
 20
82280.92016503698
 30
0.0
 11
7073.1398737308336
 21
82280.92016503698
 31
0.0
  0
LINE
  5
1C0
  8
SAIBU
 10
7073.1398737308336
 20
82280.92016503698
 30
0.0
 11
7040.9353737265328
 21
82292.569107616378
 31
0.0
  0
LINE
  5
1C1
  8
SAIBU
 10
7188.3710364927529
 20
81552.107570112159
 30
0.0
 11
7188.3710364927529
 21
81565.871815293853
 31
0.0
  0
LINE
  5
1C2
  8
SAIBU
 10
7188.3710364927529
 20
81565.871815293853
 30
0.0
 11
7197.1052607388701
 21
81565.871815293853
 31
0.0
  0
LINE
  5
1C3
  8
HONTAI
 62
     2
 10
10005.878479318921
 20
81264.356248494296
 30
0.0
 11
10115.861346198129
 21
81264.356248494296
 31
0.0
  0
LINE
  5
1C4
  8
HONTAI
 62
     2
 10
9987.3981017200877
 20
81354.356248494296
 30
0.0
 11
10134.34172379691
 21
81354.356248494296
 31
0.0
  0
LINE
  5
1C5
  8
HONTAI
 62
     2
 10
9980.8699127585278
 20
81321.239117767735
 30
0.0
 11
9980.8699127585278
 21
81339.180404237879
 31
0.0
  0
LINE
  5
1C6
  8
HONTAI
 62
     2
 10
9980.8699127585278
 20
81321.239117767735
 30
0.0
 11
10005.878479318921
 21
81264.356248494296
 31
0.0
  0
ARC
  5
1C7
  8
HONTAI
 62
     2
 10
9960.5729009466013
 20
81330.209761002785
 30
0.0
 40
22.19101459021628
 50
23.843926758798531
 51
336.15607324120151
  0
LINE
  5
1C8
  8
HONTAI
 62
     2
 10
9980.8699127585278
 20
81339.180404237879
 30
0.0
 11
9987.3981017200877
 21
81354.356248494296
 31
0.0
  0
LINE
  5
1C9
  8
HONTAI
 62
     2
 10
10140.86991275853
 20
81339.180404237879
 30
0.0
 11
10134.34172379691
 21
81354.356248494296
 31
0.0
  0
ARC
  5
1CA
  8
HONTAI
 62
     2
 10
10161.166924570391
 20
81330.209761002858
 30
0.0
 40
22.19101459021628
 50
203.84392675879849
 51
156.15607324120151
  0
LINE
  5
1CB
  8
HONTAI
 62
     2
 10
10140.86991275853
 20
81321.239117767778
 30
0.0
 11
10115.861346198129
 21
81264.356248494296
 31
0.0
  0
LINE
  5
1CC
  8
HONTAI
 62
     2
 10
10140.86991275853
 20
81321.239117767735
 30
0.0
 11
10140.86991275853
 21
81339.180404237879
 31
0.0
  0
LINE
  5
1CD
  8
HONTAI
 62
     2
 10
10125.84572355397
 20
81287.066067969005
 30
0.0
 11
10145.1583068216
 21
81264.265494833075
 31
0.0
  0
LINE
  5
1CE
  8
HONTAI
 62
     2
 10
10145.1583068216
 20
81264.265494833075
 30
0.0
 11
10195.937850453951
 21
81264.265494833075
 31
0.0
  0
LINE
  5
1CF
  8
HONTAI
 62
     2
 10
10195.937850453951
 20
81264.265494833075
 30
0.0
 11
10225.572366238101
 21
81314.16457160264
 31
0.0
  0
LINE
  5
1D0
  8
HONTAI
 62
     2
 10
9925.8019750631065
 20
81264.265494833075
 30
0.0
 11
9896.1674592789495
 21
81314.16457160264
 31
0.0
  0
LINE
  5
1D1
  8
HONTAI
 62
     2
 10
9976.5815186954569
 20
81264.265494833075
 30
0.0
 11
9925.8019750631065
 21
81264.265494833075
 31
0.0
  0
LINE
  5
1D2
  8
HONTAI
 62
     2
 10
9995.8941019630292
 20
81287.066067969005
 30
0.0
 11
9976.5815186954569
 21
81264.265494833075
 31
0.0
  0
LINE
  5
1D3
  8
SAIBU
 10
9969.2042921604025
 20
81601.789780537074
 30
0.0
 11
10152.535533356589
 21
81601.789780537074
 31
0.0
  0
LINE
  5
1D4
  8
SAIBU
 10
9940.5012847901671
 20
81614.957900327223
 30
0.0
 11
9964.4599158572964
 21
81614.957900327223
 31
0.0
  0
LINE
  5
1D5
  8
SAIBU
 10
9964.4599158572964
 20
81614.957900327223
 30
0.0
 11
9969.2042921604025
 21
81601.789780537074
 31
0.0
  0
LINE
  5
1D6
  8
SAIBU
 10
10157.279909659699
 20
81614.957900327223
 30
0.0
 11
10152.535533356589
 21
81601.789780537074
 31
0.0
  0
LINE
  5
1D7
  8
SAIBU
 10
10181.23854072689
 20
81614.957900327223
 30
0.0
 11
10157.279909659699
 21
81614.957900327223
 31
0.0
  0
LINE
  5
1D8
  8
SAIBU
 10
9860.4530530117936
 20
81829.356248494296
 30
0.0
 11
9974.3581420827541
 21
81829.356248494296
 31
0.0
  0
LINE
  5
1D9
  8
SAIBU
 10
9964.4599158572964
 20
81614.957900327223
 30
0.0
 11
10003.1053055097
 21
81859.679601285432
 31
0.0
  0
LINE
  5
1DA
  8
SAIBU
 10
9940.5012847901671
 20
81614.957900327223
 30
0.0
 11
9974.3581420827541
 21
81829.356248494296
 31
0.0
  0
LINE
  5
1DB
  8
SAIBU
 10
9953.6898456270574
 20
81859.679601285432
 30
0.0
 11
9940.1430517102726
 21
81829.356248494296
 31
0.0
  0
LINE
  5
1DC
  8
SAIBU
 10
9998.3167731498834
 20
81829.356248494296
 30
0.0
 11
10123.42305236711
 21
81829.356248494296
 31
0.0
  0
LINE
  5
1DD
  8
SAIBU
 10
10181.23854072689
 20
81614.957900327223
 30
0.0
 11
10147.38168343424
 21
81829.356248494296
 31
0.0
  0
LINE
  5
1DE
  8
SAIBU
 10
10157.279909659699
 20
81614.957900327223
 30
0.0
 11
10118.63452000729
 21
81859.679601285432
 31
0.0
  0
LINE
  5
1DF
  8
SAIBU
 10
10168.04997988994
 20
81859.679601285432
 30
0.0
 11
10181.596773806779
 21
81829.356248494296
 31
0.0
  0
LINE
  5
1E0
  8
SAIBU
 10
10147.38168343424
 20
81829.356248494296
 30
0.0
 11
10261.2867725052
 21
81829.356248494296
 31
0.0
  0
LINE
  5
1E1
  8
SAIBU
 10
9953.6898456270574
 20
81859.679601285432
 30
0.0
 11
10003.1053055097
 21
81859.679601285432
 31
0.0
  0
LINE
  5
1E2
  8
SAIBU
 10
10118.63452000729
 20
81859.679601285432
 30
0.0
 11
10168.04997988994
 21
81859.679601285432
 31
0.0
  0
LINE
  5
1E3
  8
SAIBU
 10
10001.57208848058
 20
81849.970513534383
 30
0.0
 11
10120.16773703648
 21
81849.970513534383
 31
0.0
  0
LINE
  5
1E4
  8
SAIBU
 10
9552.6879859778564
 20
82055.217309351137
 30
0.0
 11
9676.4204722056165
 21
82055.217309351137
 31
0.0
  0
LINE
  5
1E5
  8
SAIBU
 10
10202.477177272431
 20
82055.217309351137
 30
0.0
 11
10202.477177272431
 21
81995.590414954757
 31
0.0
  0
LINE
  5
1E6
  8
SAIBU
 10
9470.7439045086485
 20
82082.758133945696
 30
0.0
 11
9676.4204722056165
 21
82082.758133945696
 31
0.0
  0
LINE
  5
1E7
  8
SAIBU
 10
10189.429862332239
 20
82082.758133945696
 30
0.0
 11
10189.429862332239
 21
82055.217309351137
 31
0.0
  0
LINE
  5
1E8
  8
SAIBU
 10
9470.7439045086485
 20
82082.758133945696
 30
0.0
 11
9470.7439045086485
 21
82070.995322596165
 31
0.0
  0
LINE
  5
1E9
  8
SAIBU
 10
9756.7998089298508
 20
82134.531460686892
 30
0.0
 11
9756.7998089298508
 21
81947.470824238495
 31
0.0
  0
LINE
  5
1EA
  8
SAIBU
 10
9676.4204722056165
 20
82134.531460686892
 30
0.0
 11
9676.4204722056165
 21
82003.799894566997
 31
0.0
  0
LINE
  5
1EB
  8
SAIBU
 10
9756.7998089298508
 20
81995.590414954757
 30
0.0
 11
10431.450183043249
 21
81995.590414954757
 31
0.0
  0
LINE
  5
1EC
  8
SAIBU
 10
9756.7998089298508
 20
82055.217309351137
 30
0.0
 11
10202.477177272431
 21
82055.217309351137
 31
0.0
  0
LINE
  5
1ED
  8
SAIBU
 10
9756.7998089298508
 20
82082.758133945696
 30
0.0
 11
10189.429862332239
 21
82082.758133945696
 31
0.0
  0
LINE
  5
1EE
  8
SAIBU
 10
9470.7439045086485
 20
82082.758133945696
 30
0.0
 11
9470.7439045086485
 21
82115.406506848813
 31
0.0
  0
LINE
  5
1EF
  8
SAIBU
 10
9470.7439045086485
 20
82115.406506848813
 30
0.0
 11
9612.9466116638505
 21
82115.406506848813
 31
0.0
  0
LINE
  5
1F0
  8
SAIBU
 10
9612.9466116638505
 20
82115.406506848813
 30
0.0
 11
9635.869642870035
 21
82134.531460686892
 31
0.0
  0
LINE
  5
1F1
  8
SAIBU
 10
9782.9814080709475
 20
82134.531460686892
 30
0.0
 11
9782.9814080709475
 21
82082.758133945696
 31
0.0
  0
LINE
  5
1F2
  8
SAIBU
 10
9908.7584174460517
 20
82134.531460686892
 30
0.0
 11
9908.7584174461081
 21
82082.758133945696
 31
0.0
  0
LINE
  5
1F3
  8
SAIBU
 10
10189.429862332239
 20
82082.758133945696
 30
0.0
 11
10189.429862332239
 21
82115.324711231922
 31
0.0
  0
LINE
  5
1F4
  8
SAIBU
 10
9982.8911868703453
 20
82134.531460686892
 30
0.0
 11
9982.8911868703453
 21
82082.758133945696
 31
0.0
  0
LINE
  5
1F5
  8
SAIBU
 10
10048.758330640319
 20
82134.531460686892
 30
0.0
 11
10099.8438642582
 21
82115.324711231922
 31
0.0
  0
LINE
  5
1F6
  8
SAIBU
 10
10099.8438642582
 20
82115.324711231922
 30
0.0
 11
10189.429862332239
 21
82115.324711231922
 31
0.0
  0
LINE
  5
1F7
  8
SAIBU
 10
10537.80354194069
 20
82045.590414954815
 30
0.0
 11
10537.80354194069
 21
82134.531460686892
 31
0.0
  0
LINE
  5
1F8
  8
SAIBU
 10
10457.424205216461
 20
82134.531460686892
 30
0.0
 11
10457.424205216461
 21
82010.514686101524
 31
0.0
  0
LINE
  5
1F9
  8
SAIBU
 10
9782.6901682821353
 20
82174.356248494296
 30
0.0
 11
9731.5086364476592
 21
82269.356248494296
 31
0.0
  0
LINE
  5
1FA
  8
SAIBU
 10
9909.0496572349239
 20
82174.356248494296
 30
0.0
 11
9960.2311890693964
 21
82269.356248494296
 31
0.0
  0
LINE
  5
1FB
  8
SAIBU
 10
9796.328510266263
 20
82209.753291266912
 30
0.0
 11
9764.2172402372235
 21
82269.356248494296
 31
0.0
  0
LINE
  5
1FC
  8
SAIBU
 10
9796.328510266263
 20
82269.356248494296
 30
0.0
 11
9796.328510266263
 21
82209.753291266912
 31
0.0
  0
LINE
  5
1FD
  8
SAIBU
 10
9895.4113152507343
 20
82269.356248494296
 30
0.0
 11
9895.4113152507343
 21
82209.753291266912
 31
0.0
  0
LINE
  5
1FE
  8
SAIBU
 10
9895.4113152507343
 20
82209.753291266912
 30
0.0
 11
9927.5225852797739
 21
82269.356248494296
 31
0.0
  0
ARC
  5
1FF
  8
SAIBU
 10
9845.8699127585278
 20
82174.356248494296
 30
0.0
 40
14.493269018472271
 50
0.0
 51
180.0
  0
LINE
  5
200
  8
SAIBU
 10
9845.8699127585278
 20
82212.867478665954
 30
0.0
 11
9835.3979609221587
 21
82269.356248494296
 31
0.0
  0
LINE
  5
201
  8
SAIBU
 10
9845.8699127585278
 20
82212.867478665954
 30
0.0
 11
9856.3418645948987
 21
82269.356248494296
 31
0.0
  0
LINE
  5
202
  8
SAIBU
 10
9761.9449802708114
 20
82212.862185898586
 30
0.0
 11
9516.5779304103326
 21
82269.356248494296
 31
0.0
  0
ARC
  5
203
  8
SAIBU
 10
9942.3762907406781
 20
84672.641412559198
 30
0.0
 40
2459.8114026652179
 50
269.70694221879728
 51
279.4595741813348
  0
ARC
  5
204
  8
SAIBU
 10
10345.006904531851
 20
82256.143016642774
 30
0.0
 40
10.0
 50
279.4595741813348
 51
68.715881405834722
  0
LINE
  5
205
  8
HONTAI
 10
20945.869912758531
 20
82504.356248494296
 30
0.0
 11
20945.86991275847
 21
81594.356248494296
 31
0.0
  0
LINE
  5
206
  8
HONTAI
 62
     2
 10
15825.86991275853
 20
81954.356248494296
 30
0.0
 11
16568.378190994899
 21
81954.356248494296
 31
0.0
  0
LINE
  5
207
  8
HONTAI
 10
20945.86991275847
 20
81594.356248494296
 30
0.0
 11
20881.823937546691
 21
81594.356248494296
 31
0.0
  0
LINE
  5
208
  8
HONTAI
 10
20881.823937546691
 20
81594.356248494296
 30
0.0
 11
20881.823937546691
 21
82504.356248494296
 31
0.0
  0
LINE
  5
209
  8
HONTAI
 62
     2
 10
19823.361634522091
 20
81954.356248494296
 30
0.0
 11
20245.712143010871
 21
81954.356248494296
 31
0.0
  0
LINE
  5
20A
  8
HONTAI
 62
     2
 10
18573.361634522091
 20
81954.356248494296
 30
0.0
 11
19068.378190995019
 21
81954.356248494296
 31
0.0
  0
LINE
  5
20B
  8
HONTAI
 62
     2
 10
17323.361634522029
 20
81954.356248494296
 30
0.0
 11
17818.378190995019
 21
81954.356248494296
 31
0.0
  0
LINE
  5
20C
  8
SAIBU
 10
11615.869912758521
 20
81854.356248494223
 30
0.0
 11
11615.869912758521
 21
81354.356248494296
 31
0.0
  0
LINE
  5
20D
  8
SAIBU
 10
16065.815321803029
 20
81704.356248494296
 30
0.0
 11
16065.815321803029
 21
81354.356248494296
 31
0.0
  0
LINE
  5
20E
  8
SAIBU
 10
11656.01915174944
 20
81854.356248494223
 30
0.0
 11
11656.01915174944
 21
81354.356248494296
 31
0.0
  0
LINE
  5
20F
  8
SAIBU
 10
16025.66608281212
 20
81704.356248494296
 30
0.0
 11
16025.66608281212
 21
81354.356248494296
 31
0.0
  0
LINE
  5
210
  8
SAIBU
 10
12325.86991275853
 20
81504.356248494296
 30
0.0
 11
12325.86991275853
 21
81404.356248494296
 31
0.0
  0
LINE
  5
211
  8
SAIBU
 10
12300.86991275847
 20
81504.356248494296
 30
0.0
 11
12300.86991275847
 21
81404.356248494296
 31
0.0
  0
LINE
  5
212
  8
SAIBU
 10
12325.86991275853
 20
81654.356248494296
 30
0.0
 11
12325.86991275853
 21
81554.356248494296
 31
0.0
  0
LINE
  5
213
  8
SAIBU
 10
12300.869912758521
 20
81654.356248494296
 30
0.0
 11
12300.86991275847
 21
81554.356248494296
 31
0.0
  0
LINE
  5
214
  8
SAIBU
 10
12325.86991275853
 20
81804.356248494296
 30
0.0
 11
12325.86991275853
 21
81704.356248494296
 31
0.0
  0
LINE
  5
215
  8
SAIBU
 10
12300.869912758521
 20
81804.356248494296
 30
0.0
 11
12300.86991275847
 21
81704.356248494296
 31
0.0
  0
LINE
  5
216
  8
SAIBU
 10
13825.86991275853
 20
81504.356248494296
 30
0.0
 11
13825.86991275853
 21
81404.356248494296
 31
0.0
  0
LINE
  5
217
  8
SAIBU
 10
13800.86991275847
 20
81504.356248494296
 30
0.0
 11
13800.86991275847
 21
81404.356248494296
 31
0.0
  0
LINE
  5
218
  8
SAIBU
 10
13825.86991275853
 20
81654.356248494063
 30
0.0
 11
13825.86991275853
 21
81554.356248494063
 31
0.0
  0
LINE
  5
219
  8
SAIBU
 10
13800.86991275853
 20
81654.356248494063
 30
0.0
 11
13800.86991275847
 21
81554.356248494063
 31
0.0
  0
LINE
  5
21A
  8
SAIBU
 10
13825.86991275853
 20
81804.356248494296
 30
0.0
 11
13825.86991275853
 21
81704.356248494296
 31
0.0
  0
LINE
  5
21B
  8
SAIBU
 10
13800.86991275853
 20
81804.356248494063
 30
0.0
 11
13800.86991275847
 21
81704.356248494063
 31
0.0
  0
LINE
  5
21C
  8
SAIBU
 10
13825.86991275853
 20
82304.356248494296
 30
0.0
 11
13825.86991275853
 21
81854.356248494296
 31
0.0
  0
LINE
  5
21D
  8
SAIBU
 10
13800.86991275847
 20
82304.356248494296
 30
0.0
 11
13800.86991275847
 21
81854.356248494223
 31
0.0
  0
LINE
  5
21E
  8
SAIBU
 10
15825.86991275853
 20
81504.356248494296
 30
0.0
 11
15825.86991275853
 21
81404.356248494296
 31
0.0
  0
LINE
  5
21F
  8
SAIBU
 10
15800.86991275847
 20
81504.356248494296
 30
0.0
 11
15800.86991275847
 21
81404.356248494296
 31
0.0
  0
LINE
  5
220
  8
SAIBU
 10
15825.86991275853
 20
81654.356248493787
 30
0.0
 11
15825.86991275853
 21
81554.356248493714
 31
0.0
  0
LINE
  5
221
  8
SAIBU
 10
15800.86991275853
 20
81654.356248493787
 30
0.0
 11
15800.86991275847
 21
81554.356248493714
 31
0.0
  0
LINE
  5
222
  8
SAIBU
 10
15825.86991275853
 20
82304.356248494296
 30
0.0
 11
15825.86991275853
 21
81704.356248494296
 31
0.0
  0
LINE
  5
223
  8
SAIBU
 10
15800.86991275847
 20
82304.356248494296
 30
0.0
 11
15800.86991275847
 21
82070.621466982411
 31
0.0
  0
LINE
  5
224
  8
SAIBU
 10
13825.86991275853
 20
82002.715387015196
 30
0.0
 11
15800.86991275847
 21
82002.715387015196
 31
0.0
  0
LINE
  5
225
  8
SAIBU
 10
13825.86991275853
 20
82070.621466982411
 30
0.0
 11
15800.86991275847
 21
82070.621466982411
 31
0.0
  0
LINE
  5
226
  8
SAIBU
 10
15800.86991275847
 20
82002.715387015196
 30
0.0
 11
15800.86991275853
 21
81704.356248494296
 31
0.0
  0
LINE
  5
227
  8
SAIBU
 10
14293.068560813381
 20
82304.356248494296
 30
0.0
 11
14293.068560813381
 21
82070.621466982411
 31
0.0
  0
LINE
  5
228
  8
SAIBU
 10
14341.612290463931
 20
82304.356248494296
 30
0.0
 11
14341.612290463931
 21
82070.621466982411
 31
0.0
  0
LINE
  5
229
  8
SAIBU
 10
15302.77857668115
 20
82304.356248494296
 30
0.0
 11
15302.77857668115
 21
82070.621466982411
 31
0.0
  0
LINE
  5
22A
  8
SAIBU
 10
15254.234847030661
 20
82304.356248494296
 30
0.0
 11
15254.234847030601
 21
82070.621466982411
 31
0.0
  0
LINE
  5
22B
  8
SAIBU
 10
14628.89409753331
 20
81959.061558032365
 30
0.0
 11
15724.235501960149
 21
81959.061558032365
 31
0.0
  0
LINE
  5
22C
  8
SAIBU
 10
15754.235501960149
 20
81929.06155803235
 30
0.0
 11
15754.235501960149
 21
81704.356248494296
 31
0.0
  0
LINE
  5
22D
  8
SAIBU
 10
15724.235501960149
 20
81580.727890804585
 30
0.0
 11
14628.89409753331
 21
81580.727890804585
 31
0.0
  0
LINE
  5
22E
  8
SAIBU
 10
14598.89409753331
 20
81610.727890804585
 30
0.0
 11
14598.89409753331
 21
81654.356248494296
 31
0.0
  0
ARC
  5
22F
  8
SAIBU
 10
14628.89409753331
 20
81929.06155803235
 30
0.0
 40
30.0
 50
90.0
 51
180.0
  0
ARC
  5
230
  8
SAIBU
 10
14628.89409753331
 20
81610.727890804585
 30
0.0
 40
30.0
 50
180.0
 51
270.0
  0
ARC
  5
231
  8
SAIBU
 10
15724.235501960149
 20
81610.727890804585
 30
0.0
 40
30.0
 50
270.0
 51
0.0
  0
ARC
  5
232
  8
SAIBU
 10
15724.235501960149
 20
81929.06155803235
 30
0.0
 40
30.0
 50
0.0
 51
90.0
  0
LINE
  5
233
  8
SAIBU
 10
14491.66638095013
 20
81854.356248494296
 30
0.0
 11
14491.66638095013
 21
81704.356248494296
 31
0.0
  0
LINE
  5
234
  8
SAIBU
 10
14461.9969314874
 20
81804.356248494296
 30
0.0
 11
14461.9969314874
 21
81704.356248494296
 31
0.0
  0
LINE
  5
235
  8
SAIBU
 10
14598.89409753331
 20
81704.356248494296
 30
0.0
 11
14598.89409753331
 21
81929.06155803235
 31
0.0
  0
LINE
  5
236
  8
SAIBU
 10
15754.235501960209
 20
81654.356248494296
 30
0.0
 11
15754.235501960149
 21
81610.727890804585
 31
0.0
  0
LINE
  5
237
  8
SAIBU
 10
14598.89409753331
 20
81790.263707849197
 30
0.0
 11
15754.235501960149
 21
81790.263707849197
 31
0.0
  0
LINE
  5
238
  8
SAIBU
 10
15122.539849943711
 20
81790.263707849197
 30
0.0
 11
15122.539849943711
 21
81764.734876030765
 31
0.0
  0
LINE
  5
239
  8
SAIBU
 10
15122.539849943711
 20
81764.734876030765
 30
0.0
 11
15190.03251296264
 21
81764.734876030765
 31
0.0
  0
LINE
  5
23A
  8
SAIBU
 10
15190.03251296264
 20
81764.734876030765
 30
0.0
 11
15190.03251296264
 21
81790.263707849197
 31
0.0
  0
LINE
  5
23B
  8
SAIBU
 10
13400.686198109121
 20
82304.356248494296
 30
0.0
 11
13400.686198109121
 21
81917.703235266425
 31
0.0
  0
LINE
  5
23C
  8
SAIBU
 10
13352.14246845856
 20
82304.356248494296
 30
0.0
 11
13352.14246845856
 21
81917.703235266425
 31
0.0
  0
LINE
  5
23D
  8
SAIBU
 10
12376.80365517409
 20
82304.356248494296
 30
0.0
 11
12376.80365517409
 21
81917.703235266425
 31
0.0
  0
LINE
  5
23E
  8
SAIBU
 10
12055.86991275853
 20
82032.571727115836
 30
0.0
 11
12055.86991275853
 21
81854.356248494223
 31
0.0
  0
LINE
  5
23F
  8
SAIBU
 10
11895.869912758521
 20
81454.730479918246
 30
0.0
 11
12043.527774511889
 21
81454.730479918246
 31
0.0
  0
ARC
  5
240
  8
SAIBU
 10
11975.5212522858
 20
82126.410054530308
 30
0.0
 40
123.537601286851
 50
305.05328776937108
 51
310.60202218333512
  0
ARC
  5
241
  8
SAIBU
 10
11902.11122686986
 20
82018.314736950153
 30
0.0
 40
77.210972955654142
 50
166.5840498812683
 51
305.05328776937108
  0
LINE
  5
242
  8
SAIBU
 10
11855.354828321661
 20
82155.073087924917
 30
0.0
 11
11827.007238980959
 21
82036.229126360442
 31
0.0
  0
LINE
  5
243
  8
SAIBU
 10
12046.473595842721
 20
82025.279921160007
 30
0.0
 11
11946.45642559847
 21
81955.108426391205
 31
0.0
  0
LINE
  5
244
  8
SAIBU
 10
12099.05885357264
 20
82126.410054530308
 30
0.0
 11
12099.05885357264
 21
82042.614335997612
 31
0.0
  0
LINE
  5
245
  8
SAIBU
 10
12089.05885357264
 20
82032.614335997612
 30
0.0
 11
12055.91964851756
 21
82032.614335997554
 31
0.0
  0
ARC
  5
246
  8
SAIBU
 10
11975.5212522858
 20
82126.410054530308
 30
0.0
 40
123.537601286851
 50
0.0
 51
166.5840498812683
  0
LINE
  5
247
  8
SAIBU
 10
13800.86991275847
 20
81917.703235266425
 30
0.0
 11
12971.348711178931
 21
81917.703235266425
 31
0.0
  0
LINE
  5
248
  8
SAIBU
 10
12300.86991275847
 20
81917.703235266425
 30
0.0
 11
12055.86991275853
 21
81917.703235266425
 31
0.0
  0
LINE
  5
249
  8
SAIBU
 10
11880.38682660827
 20
81917.703235266425
 30
0.0
 11
11834.97707608732
 21
81917.703235266425
 31
0.0
  0
LINE
  5
24A
  8
CENTER
 62
     6
 10
10710.86991275846
 20
80920.629476050264
 30
0.0
 11
10710.869912758541
 21
82158.083020938328
 31
0.0
  0
LINE
  5
24B
  8
CENTER
 62
     6
 10
9410.8699127585278
 20
80920.629476050264
 30
0.0
 11
9410.8699127585278
 21
82158.083020938328
 31
0.0
  0
LINE
  5
24C
  8
SAIBU
 10
10696.087498738831
 20
82304.356248494296
 30
0.0
 11
11565.98051602661
 21
82213.995093917663
 31
0.0
  0
ARC
  5
24D
  8
SAIBU
 10
11534.98444427846
 20
81915.600651046785
 30
0.0
 40
300.0
 50
0.0
 51
84.069603032052498
  0
LINE
  5
24E
  8
SAIBU
 10
11895.869912758521
 20
81504.356248494296
 30
0.0
 11
11895.869912758521
 21
81454.730479918246
 31
0.0
  0
LINE
  5
24F
  8
SAIBU
 10
12055.86991275853
 20
81654.356248494296
 30
0.0
 11
12055.86991275853
 21
81562.895972538448
 31
0.0
  0
LINE
  5
250
  8
SAIBU
 10
11895.869912758521
 20
81654.356248494296
 30
0.0
 11
11895.869912758521
 21
81554.356248494296
 31
0.0
  0
LINE
  5
251
  8
SAIBU
 10
11895.869912758521
 20
81804.356248494296
 30
0.0
 11
11895.869912758521
 21
81704.356248494296
 31
0.0
  0
LINE
  5
252
  8
SAIBU
 10
12055.86991275853
 20
81804.356248494296
 30
0.0
 11
12055.86991275853
 21
81704.356248494296
 31
0.0
  0
LINE
  5
253
  8
SAIBU
 10
12043.527774511889
 20
81454.730479918246
 30
0.0
 11
12050.65331021708
 21
81495.830809562118
 31
0.0
  0
LINE
  5
254
  8
SAIBU
 10
12035.342402773031
 20
81562.895972538448
 30
0.0
 11
12035.342402773031
 21
81495.830809562118
 31
0.0
  0
LINE
  5
255
  8
SAIBU
 10
12035.342402773031
 20
81495.830809562118
 30
0.0
 11
12134.562867119619
 21
81495.830809562118
 31
0.0
  0
LINE
  5
256
  8
SAIBU
 10
12134.562867119619
 20
81495.830809562118
 30
0.0
 11
12134.562867119619
 21
81562.895972538448
 31
0.0
  0
LINE
  5
257
  8
SAIBU
 10
12134.562867119619
 20
81562.895972538448
 30
0.0
 11
12035.342402773031
 21
81562.895972538448
 31
0.0
  0
LINE
  5
258
  8
SAIBU
 10
12134.562867119619
 20
81504.356248494296
 30
0.0
 11
16025.66608281206
 21
81504.356248494296
 31
0.0
  0
LINE
  5
259
  8
SAIBU
 10
12134.562867119619
 20
81554.356248494296
 30
0.0
 11
16025.66608281206
 21
81554.356248494296
 31
0.0
  0
LINE
  5
25A
  8
SAIBU
 10
11875.88843411708
 20
81945.693118371419
 30
0.0
 11
11890.567634029539
 21
81854.356248494223
 31
0.0
  0
ARC
  5
25B
  8
SAIBU
 10
12147.440209326391
 20
82033.771491682041
 30
0.0
 40
84.894010157499082
 50
124.743465771348
 51
180.7809996243447
  0
ARC
  5
25C
  8
SAIBU
 10
12089.05885357264
 20
82042.614335997612
 30
0.0
 40
10.0
 50
270.0
 51
0.0
  0
LINE
  5
25D
  8
SAIBU
 10
11912.90240399603
 20
82140.169390310242
 30
0.0
 11
12035.69770400651
 21
82140.169390310242
 31
0.0
  0
ARC
  5
25E
  8
SAIBU
 10
11972.735131714489
 20
82140.169390310242
 30
0.0
 40
32.130403368748382
 50
27.035651242440409
 51
152.96434875755949
  0
ARC
  5
25F
  8
SAIBU
 10
12035.69770400651
 20
82147.471744585491
 30
0.0
 40
7.30235427521984
 50
270.0
 51
90.0
  0
ARC
  5
260
  8
SAIBU
 10
11912.90240399603
 20
82147.471744585491
 30
0.0
 40
7.30235427521984
 50
90.0
 51
270.0
  0
LINE
  5
261
  8
SAIBU
 10
11912.90240399603
 20
82154.774098860755
 30
0.0
 11
11944.1158146577
 21
82154.774098860755
 31
0.0
  0
LINE
  5
262
  8
SAIBU
 10
12001.354448771221
 20
82154.774098860755
 30
0.0
 11
12035.69770400651
 21
82154.774098860755
 31
0.0
  0
ARC
  5
263
  8
SAIBU
 10
11910.894952026831
 20
81957.254962223757
 30
0.0
 40
19.582286001626539
 50
90.0
 51
235.38363183473101
  0
LINE
  5
264
  8
SAIBU
 10
11910.894952026831
 20
81976.837248225405
 30
0.0
 11
11977.42705376813
 21
81976.837248225405
 31
0.0
  0
POLYLINE
  5
265
  8
SAIBU
 10
12971.369529861864
 20
81916.780109143307
 30
0.0
 66
     1
 70
     8
  0
VERTEX
  8
SAIBU
  5
656
 10
12971.4
 20
81916.8
 30
0.000000
  70
    32
  0
VERTEX
  8
SAIBU
  5
657
 10
12971.3
 20
81918.9
 30
0.000000
  70
    32
  0
VERTEX
  8
SAIBU
  5
658
 10
12970.9
 20
81920.9
 30
0.000000
  70
    32
  0
VERTEX
  8
SAIBU
  5
659
 10
12970.4
 20
81923.0
 30
0.000000
  70
    32
  0
VERTEX
  8
SAIBU
  5
65A
 10
12969.7
 20
81925.1
 30
0.000000
  70
    32
  0
VERTEX
  8
SAIBU
  5
65B
 10
12968.7
 20
81927.1
 30
0.000000
  70
    32
  0
VERTEX
  8
SAIBU
  5
65C
 10
12967.6
 20
81929.1
 30
0.000000
  70
    32
  0
VERTEX
  8
SAIBU
  5
65D
 10
12966.2
 20
81931.1
 30
0.000000
  70
    32
  0
VERTEX
  8
SAIBU
  5
65E
 10
12964.7
 20
81933.0
 30
0.000000
  70
    32
  0
VERTEX
  8
SAIBU
  5
65F
 10
12962.9
 20
81934.9
 30
0.000000
  70
    32
  0
VERTEX
  8
SAIBU
  5
660
 10
12961.0
 20
81936.8
 30
0.000000
  70
    32
  0
VERTEX
  8
SAIBU
  5
661
 10
12958.9
 20
81938.6
 30
0.000000
  70
    32
  0
VERTEX
  8
SAIBU
  5
662
 10
12956.6
 20
81940.3
 30
0.000000
  70
    32
  0
VERTEX
  8
SAIBU
  5
663
 10
12954.1
 20
81942.0
 30
0.000000
  70
    32
  0
VERTEX
  8
SAIBU
  5
664
 10
12951.4
 20
81943.7
 30
0.000000
  70
    32
  0
VERTEX
  8
SAIBU
  5
665
 10
12948.6
 20
81945.3
 30
0.000000
  70
    32
  0
VERTEX
  8
SAIBU
  5
666
 10
12945.6
 20
81946.8
 30
0.000000
  70
    32
  0
VERTEX
  8
SAIBU
  5
667
 10
12942.5
 20
81948.2
 30
0.000000
  70
    32
  0
VERTEX
  8
SAIBU
  5
668
 10
12939.3
 20
81949.6
 30
0.000000
  70
    32
  0
VERTEX
  8
SAIBU
  5
669
 10
12935.9
 20
81950.8
 30
0.000000
  70
    32
  0
VERTEX
  8
SAIBU
  5
66A
 10
12932.3
 20
81952.0
 30
0.000000
  70
    32
  0
VERTEX
  8
SAIBU
  5
66B
 10
12928.7
 20
81953.1
 30
0.000000
  70
    32
  0
VERTEX
  8
SAIBU
  5
66C
 10
12924.9
 20
81954.2
 30
0.000000
  70
    32
  0
VERTEX
  8
SAIBU
  5
66D
 10
12921.1
 20
81955.1
 30
0.000000
  70
    32
  0
VERTEX
  8
SAIBU
  5
66E
 10
12917.2
 20
81956.0
 30
0.000000
  70
    32
  0
VERTEX
  8
SAIBU
  5
66F
 10
12913.1
 20
81956.7
 30
0.000000
  70
    32
  0
VERTEX
  8
SAIBU
  5
670
 10
12909.0
 20
81957.4
 30
0.000000
  70
    32
  0
VERTEX
  8
SAIBU
  5
671
 10
12904.9
 20
81957.9
 30
0.000000
  70
    32
  0
VERTEX
  8
SAIBU
  5
672
 10
12900.7
 20
81958.4
 30
0.000000
  70
    32
  0
VERTEX
  8
SAIBU
  5
673
 10
12896.4
 20
81958.7
 30
0.000000
  70
    32
  0
VERTEX
  8
SAIBU
  5
674
 10
12892.2
 20
81959.0
 30
0.000000
  70
    32
  0
VERTEX
  8
SAIBU
  5
675
 10
12887.9
 20
81959.1
 30
0.000000
  70
    32
  0
VERTEX
  8
SAIBU
  5
676
 10
12883.5
 20
81959.2
 30
0.000000
  70
    32
  0
VERTEX
  8
SAIBU
  5
677
 10
12879.2
 20
81959.1
 30
0.000000
  70
    32
  0
VERTEX
  8
SAIBU
  5
678
 10
12874.9
 20
81959.0
 30
0.000000
  70
    32
  0
VERTEX
  8
SAIBU
  5
679
 10
12870.7
 20
81958.7
 30
0.000000
  70
    32
  0
VERTEX
  8
SAIBU
  5
67A
 10
12866.4
 20
81958.4
 30
0.000000
  70
    32
  0
VERTEX
  8
SAIBU
  5
67B
 10
12862.2
 20
81957.9
 30
0.000000
  70
    32
  0
VERTEX
  8
SAIBU
  5
67C
 10
12858.0
 20
81957.4
 30
0.000000
  70
    32
  0
VERTEX
  8
SAIBU
  5
67D
 10
12854.0
 20
81956.7
 30
0.000000
  70
    32
  0
VERTEX
  8
SAIBU
  5
67E
 10
12849.9
 20
81956.0
 30
0.000000
  70
    32
  0
VERTEX
  8
SAIBU
  5
67F
 10
12846.0
 20
81955.1
 30
0.000000
  70
    32
  0
VERTEX
  8
SAIBU
  5
680
 10
12842.1
 20
81954.2
 30
0.000000
  70
    32
  0
VERTEX
  8
SAIBU
  5
681
 10
12838.4
 20
81953.1
 30
0.000000
  70
    32
  0
VERTEX
  8
SAIBU
  5
682
 10
12834.7
 20
81952.0
 30
0.000000
  70
    32
  0
VERTEX
  8
SAIBU
  5
683
 10
12831.2
 20
81950.8
 30
0.000000
  70
    32
  0
VERTEX
  8
SAIBU
  5
684
 10
12827.8
 20
81949.6
 30
0.000000
  70
    32
  0
VERTEX
  8
SAIBU
  5
685
 10
12824.6
 20
81948.2
 30
0.000000
  70
    32
  0
VERTEX
  8
SAIBU
  5
686
 10
12821.4
 20
81946.8
 30
0.000000
  70
    32
  0
VERTEX
  8
SAIBU
  5
687
 10
12818.5
 20
81945.3
 30
0.000000
  70
    32
  0
VERTEX
  8
SAIBU
  5
688
 10
12815.7
 20
81943.7
 30
0.000000
  70
    32
  0
VERTEX
  8
SAIBU
  5
689
 10
12813.0
 20
81942.0
 30
0.000000
  70
    32
  0
VERTEX
  8
SAIBU
  5
68A
 10
12810.5
 20
81940.3
 30
0.000000
  70
    32
  0
VERTEX
  8
SAIBU
  5
68B
 10
12808.2
 20
81938.6
 30
0.000000
  70
    32
  0
VERTEX
  8
SAIBU
  5
68C
 10
12806.1
 20
81936.8
 30
0.000000
  70
    32
  0
VERTEX
  8
SAIBU
  5
68D
 10
12804.1
 20
81934.9
 30
0.000000
  70
    32
  0
VERTEX
  8
SAIBU
  5
68E
 10
12802.4
 20
81933.0
 30
0.000000
  70
    32
  0
VERTEX
  8
SAIBU
  5
68F
 10
12800.8
 20
81931.1
 30
0.000000
  70
    32
  0
VERTEX
  8
SAIBU
  5
690
 10
12799.5
 20
81929.1
 30
0.000000
  70
    32
  0
VERTEX
  8
SAIBU
  5
691
 10
12798.3
 20
81927.1
 30
0.000000
  70
    32
  0
VERTEX
  8
SAIBU
  5
692
 10
12797.4
 20
81925.1
 30
0.000000
  70
    32
  0
VERTEX
  8
SAIBU
  5
693
 10
12796.7
 20
81923.0
 30
0.000000
  70
    32
  0
VERTEX
  8
SAIBU
  5
694
 10
12796.1
 20
81920.9
 30
0.000000
  70
    32
  0
VERTEX
  8
SAIBU
  5
695
 10
12795.8
 20
81918.9
 30
0.000000
  70
    32
  0
VERTEX
  8
SAIBU
  5
696
 10
12795.7
 20
81916.8
 30
0.000000
  70
    32
  0
VERTEX
  8
SAIBU
  5
697
 10
12795.8
 20
81914.7
 30
0.000000
  70
    32
  0
VERTEX
  8
SAIBU
  5
698
 10
12796.1
 20
81912.6
 30
0.000000
  70
    32
  0
VERTEX
  8
SAIBU
  5
699
 10
12796.7
 20
81910.6
 30
0.000000
  70
    32
  0
VERTEX
  8
SAIBU
  5
69A
 10
12797.4
 20
81908.5
 30
0.000000
  70
    32
  0
VERTEX
  8
SAIBU
  5
69B
 10
12798.3
 20
81906.5
 30
0.000000
  70
    32
  0
VERTEX
  8
SAIBU
  5
69C
 10
12799.5
 20
81904.5
 30
0.000000
  70
    32
  0
VERTEX
  8
SAIBU
  5
69D
 10
12800.8
 20
81902.5
 30
0.000000
  70
    32
  0
VERTEX
  8
SAIBU
  5
69E
 10
12802.4
 20
81900.6
 30
0.000000
  70
    32
  0
VERTEX
  8
SAIBU
  5
69F
 10
12804.1
 20
81898.7
 30
0.000000
  70
    32
  0
VERTEX
  8
SAIBU
  5
6A0
 10
12806.1
 20
81896.8
 30
0.000000
  70
    32
  0
VERTEX
  8
SAIBU
  5
6A1
 10
12808.2
 20
81895.0
 30
0.000000
  70
    32
  0
VERTEX
  8
SAIBU
  5
6A2
 10
12810.5
 20
81893.2
 30
0.000000
  70
    32
  0
VERTEX
  8
SAIBU
  5
6A3
 10
12813.0
 20
81891.5
 30
0.000000
  70
    32
  0
VERTEX
  8
SAIBU
  5
6A4
 10
12815.7
 20
81889.9
 30
0.000000
  70
    32
  0
VERTEX
  8
SAIBU
  5
6A5
 10
12818.5
 20
81888.3
 30
0.000000
  70
    32
  0
VERTEX
  8
SAIBU
  5
6A6
 10
12821.4
 20
81886.8
 30
0.000000
  70
    32
  0
VERTEX
  8
SAIBU
  5
6A7
 10
12824.6
 20
81885.4
 30
0.000000
  70
    32
  0
VERTEX
  8
SAIBU
  5
6A8
 10
12827.8
 20
81884.0
 30
0.000000
  70
    32
  0
VERTEX
  8
SAIBU
  5
6A9
 10
12831.2
 20
81882.7
 30
0.000000
  70
    32
  0
VERTEX
  8
SAIBU
  5
6AA
 10
12834.7
 20
81881.5
 30
0.000000
  70
    32
  0
VERTEX
  8
SAIBU
  5
6AB
 10
12838.4
 20
81880.4
 30
0.000000
  70
    32
  0
VERTEX
  8
SAIBU
  5
6AC
 10
12842.1
 20
81879.4
 30
0.000000
  70
    32
  0
VERTEX
  8
SAIBU
  5
6AD
 10
12846.0
 20
81878.5
 30
0.000000
  70
    32
  0
VERTEX
  8
SAIBU
  5
6AE
 10
12849.9
 20
81877.6
 30
0.000000
  70
    32
  0
VERTEX
  8
SAIBU
  5
6AF
 10
12854.0
 20
81876.9
 30
0.000000
  70
    32
  0
VERTEX
  8
SAIBU
  5
6B0
 10
12858.0
 20
81876.2
 30
0.000000
  70
    32
  0
VERTEX
  8
SAIBU
  5
6B1
 10
12862.2
 20
81875.7
 30
0.000000
  70
    32
  0
VERTEX
  8
SAIBU
  5
6B2
 10
12866.4
 20
81875.2
 30
0.000000
  70
    32
  0
VERTEX
  8
SAIBU
  5
6B3
 10
12870.7
 20
81874.8
 30
0.000000
  70
    32
  0
VERTEX
  8
SAIBU
  5
6B4
 10
12874.9
 20
81874.6
 30
0.000000
  70
    32
  0
VERTEX
  8
SAIBU
  5
6B5
 10
12879.2
 20
81874.4
 30
0.000000
  70
    32
  0
VERTEX
  8
SAIBU
  5
6B6
 10
12883.5
 20
81874.4
 30
0.000000
  70
    32
  0
VERTEX
  8
SAIBU
  5
6B7
 10
12887.9
 20
81874.4
 30
0.000000
  70
    32
  0
VERTEX
  8
SAIBU
  5
6B8
 10
12892.2
 20
81874.6
 30
0.000000
  70
    32
  0
VERTEX
  8
SAIBU
  5
6B9
 10
12896.4
 20
81874.8
 30
0.000000
  70
    32
  0
VERTEX
  8
SAIBU
  5
6BA
 10
12900.7
 20
81875.2
 30
0.000000
  70
    32
  0
VERTEX
  8
SAIBU
  5
6BB
 10
12904.9
 20
81875.7
 30
0.000000
  70
    32
  0
VERTEX
  8
SAIBU
  5
6BC
 10
12909.0
 20
81876.2
 30
0.000000
  70
    32
  0
VERTEX
  8
SAIBU
  5
6BD
 10
12913.1
 20
81876.9
 30
0.000000
  70
    32
  0
VERTEX
  8
SAIBU
  5
6BE
 10
12917.2
 20
81877.6
 30
0.000000
  70
    32
  0
VERTEX
  8
SAIBU
  5
6BF
 10
12921.1
 20
81878.5
 30
0.000000
  70
    32
  0
VERTEX
  8
SAIBU
  5
6C0
 10
12924.9
 20
81879.4
 30
0.000000
  70
    32
  0
VERTEX
  8
SAIBU
  5
6C1
 10
12928.7
 20
81880.4
 30
0.000000
  70
    32
  0
VERTEX
  8
SAIBU
  5
6C2
 10
12932.3
 20
81881.5
 30
0.000000
  70
    32
  0
VERTEX
  8
SAIBU
  5
6C3
 10
12935.9
 20
81882.7
 30
0.000000
  70
    32
  0
VERTEX
  8
SAIBU
  5
6C4
 10
12939.3
 20
81884.0
 30
0.000000
  70
    32
  0
VERTEX
  8
SAIBU
  5
6C5
 10
12942.5
 20
81885.4
 30
0.000000
  70
    32
  0
VERTEX
  8
SAIBU
  5
6C6
 10
12945.6
 20
81886.8
 30
0.000000
  70
    32
  0
VERTEX
  8
SAIBU
  5
6C7
 10
12948.6
 20
81888.3
 30
0.000000
  70
    32
  0
VERTEX
  8
SAIBU
  5
6C8
 10
12951.4
 20
81889.9
 30
0.000000
  70
    32
  0
VERTEX
  8
SAIBU
  5
6C9
 10
12954.1
 20
81891.5
 30
0.000000
  70
    32
  0
VERTEX
  8
SAIBU
  5
6CA
 10
12956.6
 20
81893.2
 30
0.000000
  70
    32
  0
VERTEX
  8
SAIBU
  5
6CB
 10
12958.9
 20
81895.0
 30
0.000000
  70
    32
  0
VERTEX
  8
SAIBU
  5
6CC
 10
12961.0
 20
81896.8
 30
0.000000
  70
    32
  0
VERTEX
  8
SAIBU
  5
6CD
 10
12962.9
 20
81898.7
 30
0.000000
  70
    32
  0
VERTEX
  8
SAIBU
  5
6CE
 10
12964.7
 20
81900.6
 30
0.000000
  70
    32
  0
VERTEX
  8
SAIBU
  5
6CF
 10
12966.2
 20
81902.5
 30
0.000000
  70
    32
  0
VERTEX
  8
SAIBU
  5
6D0
 10
12967.6
 20
81904.5
 30
0.000000
  70
    32
  0
VERTEX
  8
SAIBU
  5
6D1
 10
12968.7
 20
81906.5
 30
0.000000
  70
    32
  0
VERTEX
  8
SAIBU
  5
6D2
 10
12969.7
 20
81908.5
 30
0.000000
  70
    32
  0
VERTEX
  8
SAIBU
  5
6D3
 10
12970.4
 20
81910.6
 30
0.000000
  70
    32
  0
VERTEX
  8
SAIBU
  5
6D4
 10
12970.9
 20
81912.6
 30
0.000000
  70
    32
  0
VERTEX
  8
SAIBU
  5
6D5
 10
12971.3
 20
81914.7
 30
0.000000
  70
    32
  0
VERTEX
  8
SAIBU
  5
6D6
 10
12971.4
 20
81916.8
 30
0.000000
  70
    32
  0
SEQEND
  8
SAIBU
  5
6D7
  0
LINE
  5
266
  8
SAIBU
 10
12795.73580614908
 20
81917.703235266425
 30
0.0
 11
12325.86991275853
 21
81917.703235266425
 31
0.0
  0
LINE
  5
267
  8
SAIBU
 10
17623.640400189732
 20
81710.623112516652
 30
0.0
 11
17600.01536074152
 21
81613.770048869643
 31
0.0
  0
LINE
  5
268
  8
SAIBU
 10
17518.099425327258
 20
81710.623112516652
 30
0.0
 11
17541.724464775529
 21
81613.770048869643
 31
0.0
  0
ARC
  5
269
  8
SAIBU
 10
17570.869912758531
 20
81620.87939918245
 30
0.0
 40
285.28938241553988
 50
100.6594876375087
 51
125.0892216774
  0
ARC
  5
26A
  8
SAIBU
 10
17570.869912758531
 20
81620.87939918245
 30
0.0
 40
285.28938241553988
 50
54.91077832259996
 51
79.340512362491253
  0
LINE
  5
26B
  8
SAIBU
 10
17570.869912758531
 20
81590.87939918245
 30
0.0
 11
17570.869912758531
 21
81285.415533033723
 31
0.0
  0
LINE
  5
26C
  8
SAIBU
 10
18820.86991275847
 20
81590.87939918245
 30
0.0
 11
18820.86991275847
 21
81285.415533033723
 31
0.0
  0
ARC
  5
26D
  8
SAIBU
 10
18820.86991275847
 20
81620.87939918245
 30
0.0
 40
285.28938241553988
 50
54.91077832259996
 51
79.340512362491253
  0
ARC
  5
26E
  8
SAIBU
 10
18820.86991275847
 20
81620.87939918245
 30
0.0
 40
285.28938241553988
 50
100.6594876375087
 51
125.0892216774
  0
ARC
  5
26F
  8
SAIBU
 10
18971.549813320042
 20
81920.823831284652
 30
0.0
 40
161.3757962075203
 50
232.6475141565513
 51
265.49186996217958
  0
LINE
  5
270
  8
SAIBU
 10
18768.099425327258
 20
81710.623112516652
 30
0.0
 11
18791.724464775471
 21
81613.770048869643
 31
0.0
  0
LINE
  5
271
  8
SAIBU
 10
18873.640400189732
 20
81710.623112516652
 30
0.0
 11
18850.015360741469
 21
81613.770048869643
 31
0.0
  0
CIRCLE
  5
272
  8
SAIBU
 10
18820.86991275847
 20
81620.87939918245
 30
0.0
 40
30.0
  0
CIRCLE
  5
273
  8
SAIBU
 10
18820.86991275847
 20
81836.891900743067
 30
0.0
 40
30.0
  0
LINE
  5
274
  8
SAIBU
 10
18768.099425327258
 20
81954.356248494296
 30
0.0
 11
18768.099425327258
 21
81710.623112516652
 31
0.0
  0
LINE
  5
275
  8
SAIBU
 10
18873.640400189732
 20
81710.623112516652
 30
0.0
 11
18873.640400189732
 21
81954.356248494296
 31
0.0
  0
LINE
  5
276
  8
SAIBU
 10
17502.007380740131
 20
82304.356248494296
 30
0.0
 11
17502.007380740131
 21
81954.356248494296
 31
0.0
  0
LINE
  5
277
  8
SAIBU
 10
17639.732444776859
 20
82304.356248494296
 30
0.0
 11
17639.732444776859
 21
81954.356248494296
 31
0.0
  0
LINE
  5
278
  8
SAIBU
 10
17552.13140244997
 20
82304.356248494296
 30
0.0
 11
17552.13140244997
 21
82050.658572158194
 31
0.0
  0
LINE
  5
279
  8
SAIBU
 10
17589.60842306702
 20
82304.356248494296
 30
0.0
 11
17589.60842306702
 21
82050.658572158194
 31
0.0
  0
ARC
  5
27A
  8
SAIBU
 10
17570.869912758531
 20
82050.658572158194
 30
0.0
 40
18.738510308539841
 50
180.0
 51
0.0
  0
ARC
  5
27B
  8
SAIBU
 10
18820.86991275847
 20
82050.658572158194
 30
0.0
 40
18.738510308539841
 50
180.0
 51
0.0
  0
LINE
  5
27C
  8
SAIBU
 10
18839.60842306702
 20
82304.356248494296
 30
0.0
 11
18839.60842306702
 21
82050.658572158194
 31
0.0
  0
LINE
  5
27D
  8
SAIBU
 10
18802.131402449912
 20
82304.356248494296
 30
0.0
 11
18802.13140244997
 21
82050.658572158194
 31
0.0
  0
LINE
  5
27E
  8
SAIBU
 10
18889.732444776859
 20
82304.356248494296
 30
0.0
 11
18889.732444776859
 21
81954.356248494296
 31
0.0
  0
LINE
  5
27F
  8
SAIBU
 10
18752.007380740131
 20
82304.356248494296
 30
0.0
 11
18752.007380740131
 21
81954.356248494296
 31
0.0
  0
ARC
  5
280
  8
SAIBU
 10
16320.86991275847
 20
82050.658572158194
 30
0.0
 40
18.738510308539841
 50
180.0
 51
0.0
  0
LINE
  5
281
  8
SAIBU
 10
16302.13140244991
 20
82304.356248494296
 30
0.0
 11
16302.13140244991
 21
82050.658572158194
 31
0.0
  0
LINE
  5
282
  8
SAIBU
 10
16339.60842306702
 20
82304.356248494296
 30
0.0
 11
16339.60842306696
 21
82050.658572158194
 31
0.0
  0
LINE
  5
283
  8
SAIBU
 10
16252.007380740069
 20
82304.356248494296
 30
0.0
 11
16252.007380740069
 21
81954.356248494296
 31
0.0
  0
LINE
  5
284
  8
SAIBU
 10
16389.732444776801
 20
82304.356248494296
 30
0.0
 11
16389.732444776801
 21
81954.356248494296
 31
0.0
  0
CIRCLE
  5
285
  8
SAIBU
 10
16320.86991275847
 20
81836.891900743067
 30
0.0
 40
30.0
  0
ARC
  5
286
  8
SAIBU
 10
16161.07422911568
 20
81773.219927844475
 30
0.0
 40
91.376305826118326
 50
305.1947179581274
 51
5.6451299407013069
  0
ARC
  5
287
  8
SAIBU
 10
16250.953953244491
 20
81649.771532734143
 30
0.0
 40
61.35138376304738
 50
127.3424236007116
 51
272.77646114230242
  0
LINE
  5
288
  8
SAIBU
 10
16407.416931330521
 20
81595.935929325584
 30
0.0
 11
16134.823604072501
 21
81582.716146724124
 31
0.0
  0
ARC
  5
289
  8
SAIBU
 10
16472.535434147871
 20
81897.072561939523
 30
0.0
 40
82.860687522559985
 50
182.138304341837
 51
262.36224161152211
  0
LINE
  5
28A
  8
SAIBU
 10
16134.823604072501
 20
81582.716146724124
 30
0.0
 11
16134.823604072441
 21
81518.429854948074
 31
0.0
  0
LINE
  5
28B
  8
SAIBU
 10
16134.823604072441
 20
81518.429854948074
 30
0.0
 11
16396.050002604839
 21
81518.429854948074
 31
0.0
  0
LINE
  5
28C
  8
SAIBU
 10
16134.823604072441
 20
81518.429854948074
 30
0.0
 11
16065.815321803029
 21
81515.431950506812
 31
0.0
  0
LINE
  5
28D
  8
SAIBU
 10
16134.823604072501
 20
81582.716146724124
 30
0.0
 11
16065.815321803029
 21
81606.643848389678
 31
0.0
  0
LINE
  5
28E
  8
SAIBU
 10
20139.732444776859
 20
82193.192340768015
 30
0.0
 11
20139.732444776859
 21
81954.356248494296
 31
0.0
  0
LINE
  5
28F
  8
SAIBU
 10
20002.00738074019
 20
82304.356248494296
 30
0.0
 11
20002.00738074019
 21
81954.356248494296
 31
0.0
  0
LINE
  5
290
  8
SAIBU
 10
20089.608423067079
 20
82304.356248494296
 30
0.0
 11
20089.608423067079
 21
82050.658572158194
 31
0.0
  0
LINE
  5
291
  8
SAIBU
 10
20052.13140244997
 20
82304.356248494296
 30
0.0
 11
20052.13140244997
 21
82050.658572158194
 31
0.0
  0
ARC
  5
292
  8
SAIBU
 10
20070.869912758531
 20
82050.658572158194
 30
0.0
 40
18.738510308539841
 50
180.0
 51
0.0
  0
LINE
  5
293
  8
SAIBU
 10
20139.732444776859
 20
81937.048014049127
 30
0.0
 11
20139.732444776859
 21
81712.597799804003
 31
0.0
  0
LINE
  5
294
  8
SAIBU
 10
20139.732444776859
 20
81712.597799804003
 30
0.0
 11
19994.666961240349
 21
81540.712810180208
 31
0.0
  0
LINE
  5
295
  8
SAIBU
 10
20002.00738074019
 20
81954.356248494296
 30
0.0
 11
19969.285533543789
 21
81830.487685391257
 31
0.0
  0
LINE
  5
296
  8
SAIBU
 10
19969.285533543789
 20
81830.487685391257
 30
0.0
 11
19928.804453041928
 21
81817.556229119844
 31
0.0
  0
LINE
  5
297
  8
SAIBU
 10
20139.732444776859
 20
81816.487685391287
 30
0.0
 11
20194.285533543789
 21
81816.487685391287
 31
0.0
  0
LINE
  5
298
  8
SAIBU
 10
20194.285533543789
 20
81816.487685391287
 30
0.0
 11
20194.285533543789
 21
81764.487685391287
 31
0.0
  0
LINE
  5
299
  8
SAIBU
 10
20194.285533543789
 20
81764.487685391287
 30
0.0
 11
20139.732444776859
 21
81764.487685391287
 31
0.0
  0
LINE
  5
29A
  8
SAIBU
 10
20090.40523764008
 20
82304.356248494296
 30
0.0
 11
20406.285533543789
 21
81592.487685391272
 31
0.0
  0
LINE
  5
29B
  8
SAIBU
 10
20406.285533543789
 20
81592.487685391272
 30
0.0
 11
20472.285533543789
 21
81592.487685391272
 31
0.0
  0
LINE
  5
29C
  8
SAIBU
 10
20156.40523764008
 20
82304.356248494296
 30
0.0
 11
20472.285533543789
 21
81592.487685391272
 31
0.0
  0
LINE
  5
29D
  8
HONTAI
 62
     2
 10
20311.712143010871
 20
81954.356248494296
 30
0.0
 11
20881.823937546691
 21
81954.356248494296
 31
0.0
  0
LINE
  5
29E
  8
SAIBU
 10
20298.126315418631
 20
81984.973300877959
 30
0.0
 11
20450.285533543789
 21
82304.356248494296
 31
0.0
  0
LINE
  5
29F
  8
SAIBU
 10
20472.285533543789
 20
81592.487685391272
 30
0.0
 11
20472.285533543789
 21
81287.487685391272
 31
0.0
  0
LINE
  5
2A0
  8
SAIBU
 10
18863.582763811399
 20
81669.390889458416
 30
0.0
 11
18906.800086209962
 21
81663.460428546707
 31
0.0
  0
LINE
  5
2A1
  8
SAIBU
 10
18850.86991275847
 20
81620.87939918245
 30
0.0
 11
18896.630972273411
 21
81583.280049329856
 31
0.0
  0
LINE
  5
2A2
  8
SAIBU
 10
17613.582763811399
 20
81669.390889458416
 30
0.0
 11
17656.800086209962
 21
81663.460428546707
 31
0.0
  0
LINE
  5
2A3
  8
SAIBU
 10
17600.869912758521
 20
81620.87939918245
 30
0.0
 11
17651.048155886121
 21
81579.650692103954
 31
0.0
  0
LINE
  5
2A4
  8
SAIBU
 10
20594.285533543789
 20
82441.487685391287
 30
0.0
 11
20594.285533543789
 21
82373.487685391287
 31
0.0
  0
LINE
  5
2A5
  8
SAIBU
 10
20594.285533543789
 20
82373.487685391287
 30
0.0
 11
20561.285533543789
 21
82373.487685391287
 31
0.0
  0
LINE
  5
2A6
  8
SAIBU
 10
20561.285533543789
 20
82373.487685391287
 30
0.0
 11
20561.285533543789
 21
82441.487685391287
 31
0.0
  0
LINE
  5
2A7
  8
SAIBU
 10
20561.285533543789
 20
82441.487685391287
 30
0.0
 11
20594.285533543789
 21
82441.487685391287
 31
0.0
  0
LINE
  5
2A8
  8
SAIBU
 10
20061.2855335438
 20
82441.487685391287
 30
0.0
 11
20094.285533543789
 21
82441.487685391287
 31
0.0
  0
LINE
  5
2A9
  8
SAIBU
 10
20094.285533543789
 20
82441.487685391287
 30
0.0
 11
20094.285533543789
 21
82373.487685391287
 31
0.0
  0
LINE
  5
2AA
  8
SAIBU
 10
20061.2855335438
 20
82373.487685391287
 30
0.0
 11
20061.2855335438
 21
82441.487685391287
 31
0.0
  0
LINE
  5
2AB
  8
SAIBU
 10
20094.285533543789
 20
82373.487685391287
 30
0.0
 11
20061.2855335438
 21
82373.487685391287
 31
0.0
  0
LINE
  5
2AC
  8
SAIBU
 10
19561.285533543789
 20
82441.487685391287
 30
0.0
 11
19594.285533543789
 21
82441.487685391287
 31
0.0
  0
LINE
  5
2AD
  8
SAIBU
 10
19594.285533543789
 20
82441.487685391287
 30
0.0
 11
19594.285533543789
 21
82373.487685391287
 31
0.0
  0
LINE
  5
2AE
  8
SAIBU
 10
19561.285533543789
 20
82373.487685391287
 30
0.0
 11
19561.285533543789
 21
82441.487685391287
 31
0.0
  0
LINE
  5
2AF
  8
SAIBU
 10
19594.285533543789
 20
82373.487685391287
 30
0.0
 11
19561.285533543789
 21
82373.487685391287
 31
0.0
  0
LINE
  5
2B0
  8
SAIBU
 10
19061.285533543789
 20
82441.487685391287
 30
0.0
 11
19094.285533543789
 21
82441.487685391287
 31
0.0
  0
LINE
  5
2B1
  8
SAIBU
 10
19094.285533543789
 20
82441.487685391287
 30
0.0
 11
19094.285533543789
 21
82373.487685391287
 31
0.0
  0
LINE
  5
2B2
  8
SAIBU
 10
19061.285533543789
 20
82373.487685391287
 30
0.0
 11
19061.285533543789
 21
82441.487685391287
 31
0.0
  0
LINE
  5
2B3
  8
SAIBU
 10
19094.285533543789
 20
82373.487685391287
 30
0.0
 11
19061.285533543789
 21
82373.487685391287
 31
0.0
  0
LINE
  5
2B4
  8
SAIBU
 10
18561.285533543789
 20
82441.487685391287
 30
0.0
 11
18594.285533543789
 21
82441.487685391287
 31
0.0
  0
LINE
  5
2B5
  8
SAIBU
 10
18594.285533543789
 20
82441.487685391287
 30
0.0
 11
18594.285533543789
 21
82373.487685391287
 31
0.0
  0
LINE
  5
2B6
  8
SAIBU
 10
18561.285533543789
 20
82373.487685391287
 30
0.0
 11
18561.285533543789
 21
82441.487685391287
 31
0.0
  0
LINE
  5
2B7
  8
SAIBU
 10
18594.285533543789
 20
82373.487685391287
 30
0.0
 11
18561.285533543789
 21
82373.487685391287
 31
0.0
  0
LINE
  5
2B8
  8
SAIBU
 10
18061.285533543789
 20
82441.487685391287
 30
0.0
 11
18094.285533543789
 21
82441.487685391287
 31
0.0
  0
LINE
  5
2B9
  8
SAIBU
 10
18094.285533543789
 20
82441.487685391287
 30
0.0
 11
18094.285533543789
 21
82373.487685391287
 31
0.0
  0
LINE
  5
2BA
  8
SAIBU
 10
18061.285533543789
 20
82373.487685391287
 30
0.0
 11
18061.285533543789
 21
82441.487685391287
 31
0.0
  0
LINE
  5
2BB
  8
SAIBU
 10
18094.285533543789
 20
82373.487685391287
 30
0.0
 11
18061.285533543789
 21
82373.487685391287
 31
0.0
  0
LINE
  5
2BC
  8
SAIBU
 10
17561.285533543789
 20
82441.487685391287
 30
0.0
 11
17594.285533543789
 21
82441.487685391287
 31
0.0
  0
LINE
  5
2BD
  8
SAIBU
 10
17594.285533543789
 20
82441.487685391287
 30
0.0
 11
17594.285533543789
 21
82373.487685391287
 31
0.0
  0
LINE
  5
2BE
  8
SAIBU
 10
17561.285533543789
 20
82373.487685391287
 30
0.0
 11
17561.285533543789
 21
82441.487685391287
 31
0.0
  0
LINE
  5
2BF
  8
SAIBU
 10
17594.285533543789
 20
82373.487685391287
 30
0.0
 11
17561.285533543789
 21
82373.487685391287
 31
0.0
  0
LINE
  5
2C0
  8
SAIBU
 10
17061.285533543789
 20
82441.487685391287
 30
0.0
 11
17094.285533543789
 21
82441.487685391287
 31
0.0
  0
LINE
  5
2C1
  8
SAIBU
 10
17094.285533543789
 20
82441.487685391287
 30
0.0
 11
17094.285533543789
 21
82373.487685391287
 31
0.0
  0
LINE
  5
2C2
  8
SAIBU
 10
17061.285533543789
 20
82373.487685391287
 30
0.0
 11
17061.285533543789
 21
82441.487685391287
 31
0.0
  0
LINE
  5
2C3
  8
SAIBU
 10
17094.285533543789
 20
82373.487685391287
 30
0.0
 11
17061.285533543789
 21
82373.487685391287
 31
0.0
  0
LINE
  5
2C4
  8
SAIBU
 10
16561.285533543789
 20
82441.487685391287
 30
0.0
 11
16594.285533543789
 21
82441.487685391287
 31
0.0
  0
LINE
  5
2C5
  8
SAIBU
 10
16594.285533543789
 20
82441.487685391287
 30
0.0
 11
16594.285533543789
 21
82373.487685391287
 31
0.0
  0
LINE
  5
2C6
  8
SAIBU
 10
16561.285533543789
 20
82373.487685391287
 30
0.0
 11
16561.285533543789
 21
82441.487685391287
 31
0.0
  0
LINE
  5
2C7
  8
SAIBU
 10
16594.285533543789
 20
82373.487685391287
 30
0.0
 11
16561.285533543789
 21
82373.487685391287
 31
0.0
  0
LINE
  5
2C8
  8
SAIBU
 10
16061.285533543791
 20
82441.487685391287
 30
0.0
 11
16094.285533543791
 21
82441.487685391287
 31
0.0
  0
LINE
  5
2C9
  8
SAIBU
 10
16094.285533543791
 20
82441.487685391287
 30
0.0
 11
16094.285533543791
 21
82373.487685391287
 31
0.0
  0
LINE
  5
2CA
  8
SAIBU
 10
16061.285533543791
 20
82373.487685391287
 30
0.0
 11
16061.285533543791
 21
82441.487685391287
 31
0.0
  0
LINE
  5
2CB
  8
SAIBU
 10
16094.285533543791
 20
82373.487685391287
 30
0.0
 11
16061.285533543791
 21
82373.487685391287
 31
0.0
  0
LINE
  5
2CC
  8
SAIBU
 10
15561.285533543791
 20
82441.487685391287
 30
0.0
 11
15594.285533543791
 21
82441.487685391287
 31
0.0
  0
LINE
  5
2CD
  8
SAIBU
 10
15594.285533543791
 20
82441.487685391287
 30
0.0
 11
15594.285533543791
 21
82373.487685391287
 31
0.0
  0
LINE
  5
2CE
  8
SAIBU
 10
15561.285533543791
 20
82373.487685391287
 30
0.0
 11
15561.285533543791
 21
82441.487685391287
 31
0.0
  0
LINE
  5
2CF
  8
SAIBU
 10
15594.285533543791
 20
82373.487685391287
 30
0.0
 11
15561.285533543791
 21
82373.487685391287
 31
0.0
  0
LINE
  5
2D0
  8
SAIBU
 10
15061.285533543791
 20
82441.487685391287
 30
0.0
 11
15094.285533543791
 21
82441.487685391287
 31
0.0
  0
LINE
  5
2D1
  8
SAIBU
 10
15094.285533543791
 20
82441.487685391287
 30
0.0
 11
15094.285533543791
 21
82373.487685391287
 31
0.0
  0
LINE
  5
2D2
  8
SAIBU
 10
15061.285533543791
 20
82373.487685391287
 30
0.0
 11
15061.285533543791
 21
82441.487685391287
 31
0.0
  0
LINE
  5
2D3
  8
SAIBU
 10
15094.285533543791
 20
82373.487685391287
 30
0.0
 11
15061.285533543791
 21
82373.487685391287
 31
0.0
  0
LINE
  5
2D4
  8
SAIBU
 10
14561.285533543791
 20
82441.487685391287
 30
0.0
 11
14594.285533543791
 21
82441.487685391287
 31
0.0
  0
LINE
  5
2D5
  8
SAIBU
 10
14594.285533543791
 20
82441.487685391287
 30
0.0
 11
14594.285533543791
 21
82373.487685391287
 31
0.0
  0
LINE
  5
2D6
  8
SAIBU
 10
14561.285533543791
 20
82373.487685391287
 30
0.0
 11
14561.285533543791
 21
82441.487685391287
 31
0.0
  0
LINE
  5
2D7
  8
SAIBU
 10
14594.285533543791
 20
82373.487685391287
 30
0.0
 11
14561.285533543791
 21
82373.487685391287
 31
0.0
  0
LINE
  5
2D8
  8
SAIBU
 10
14061.285533543791
 20
82441.487685391287
 30
0.0
 11
14094.285533543791
 21
82441.487685391287
 31
0.0
  0
LINE
  5
2D9
  8
SAIBU
 10
14094.285533543791
 20
82441.487685391287
 30
0.0
 11
14094.285533543791
 21
82373.487685391287
 31
0.0
  0
LINE
  5
2DA
  8
SAIBU
 10
14061.285533543791
 20
82373.487685391287
 30
0.0
 11
14061.285533543791
 21
82441.487685391287
 31
0.0
  0
LINE
  5
2DB
  8
SAIBU
 10
14094.285533543791
 20
82373.487685391287
 30
0.0
 11
14061.285533543791
 21
82373.487685391287
 31
0.0
  0
LINE
  5
2DC
  8
SAIBU
 10
13561.285533543791
 20
82441.487685391287
 30
0.0
 11
13594.285533543791
 21
82441.487685391287
 31
0.0
  0
LINE
  5
2DD
  8
SAIBU
 10
13594.285533543791
 20
82441.487685391287
 30
0.0
 11
13594.285533543791
 21
82373.487685391287
 31
0.0
  0
LINE
  5
2DE
  8
SAIBU
 10
13561.285533543791
 20
82373.487685391287
 30
0.0
 11
13561.285533543791
 21
82441.487685391287
 31
0.0
  0
LINE
  5
2DF
  8
SAIBU
 10
13594.285533543791
 20
82373.487685391287
 30
0.0
 11
13561.285533543791
 21
82373.487685391287
 31
0.0
  0
LINE
  5
2E0
  8
SAIBU
 10
13061.285533543791
 20
82441.487685391287
 30
0.0
 11
13094.285533543791
 21
82441.487685391287
 31
0.0
  0
LINE
  5
2E1
  8
SAIBU
 10
13094.285533543791
 20
82441.487685391287
 30
0.0
 11
13094.285533543791
 21
82373.487685391287
 31
0.0
  0
LINE
  5
2E2
  8
SAIBU
 10
13061.285533543791
 20
82373.487685391287
 30
0.0
 11
13061.285533543791
 21
82441.487685391287
 31
0.0
  0
LINE
  5
2E3
  8
SAIBU
 10
13094.285533543791
 20
82373.487685391287
 30
0.0
 11
13061.285533543791
 21
82373.487685391287
 31
0.0
  0
LINE
  5
2E4
  8
SAIBU
 10
12561.285533543791
 20
82441.487685391287
 30
0.0
 11
12594.285533543791
 21
82441.487685391287
 31
0.0
  0
LINE
  5
2E5
  8
SAIBU
 10
12594.285533543791
 20
82441.487685391287
 30
0.0
 11
12594.285533543791
 21
82373.487685391287
 31
0.0
  0
LINE
  5
2E6
  8
SAIBU
 10
12561.285533543791
 20
82373.487685391287
 30
0.0
 11
12561.285533543791
 21
82441.487685391287
 31
0.0
  0
LINE
  5
2E7
  8
SAIBU
 10
12594.285533543791
 20
82373.487685391287
 30
0.0
 11
12561.285533543791
 21
82373.487685391287
 31
0.0
  0
LINE
  5
2E8
  8
SAIBU
 10
12061.285533543791
 20
82441.487685391287
 30
0.0
 11
12094.285533543791
 21
82441.487685391287
 31
0.0
  0
LINE
  5
2E9
  8
SAIBU
 10
12094.285533543791
 20
82441.487685391287
 30
0.0
 11
12094.285533543791
 21
82373.487685391287
 31
0.0
  0
LINE
  5
2EA
  8
SAIBU
 10
12061.285533543791
 20
82373.487685391287
 30
0.0
 11
12061.285533543791
 21
82441.487685391287
 31
0.0
  0
LINE
  5
2EB
  8
SAIBU
 10
12094.285533543791
 20
82373.487685391287
 30
0.0
 11
12061.285533543791
 21
82373.487685391287
 31
0.0
  0
LINE
  5
2EC
  8
SAIBU
 10
11561.285533543791
 20
82441.487685391287
 30
0.0
 11
11594.285533543791
 21
82441.487685391287
 31
0.0
  0
LINE
  5
2ED
  8
SAIBU
 10
11594.285533543791
 20
82441.487685391287
 30
0.0
 11
11594.285533543791
 21
82373.487685391287
 31
0.0
  0
LINE
  5
2EE
  8
SAIBU
 10
11561.285533543791
 20
82373.487685391287
 30
0.0
 11
11561.285533543791
 21
82441.487685391287
 31
0.0
  0
LINE
  5
2EF
  8
SAIBU
 10
11594.285533543791
 20
82373.487685391287
 30
0.0
 11
11561.285533543791
 21
82373.487685391287
 31
0.0
  0
LINE
  5
2F0
  8
SAIBU
 10
11061.285533543791
 20
82441.487685391287
 30
0.0
 11
11094.285533543791
 21
82441.487685391287
 31
0.0
  0
LINE
  5
2F1
  8
SAIBU
 10
11094.285533543791
 20
82441.487685391287
 30
0.0
 11
11094.285533543791
 21
82373.487685391287
 31
0.0
  0
LINE
  5
2F2
  8
SAIBU
 10
11061.285533543791
 20
82373.487685391287
 30
0.0
 11
11061.285533543791
 21
82441.487685391287
 31
0.0
  0
LINE
  5
2F3
  8
SAIBU
 10
11094.285533543791
 20
82373.487685391287
 30
0.0
 11
11061.285533543791
 21
82373.487685391287
 31
0.0
  0
LINE
  5
2F4
  8
SAIBU
 10
10561.285533543791
 20
82441.487685391287
 30
0.0
 11
10594.285533543791
 21
82441.487685391287
 31
0.0
  0
LINE
  5
2F5
  8
SAIBU
 10
10594.285533543791
 20
82441.487685391287
 30
0.0
 11
10594.285533543791
 21
82373.487685391287
 31
0.0
  0
LINE
  5
2F6
  8
SAIBU
 10
10561.285533543791
 20
82373.487685391287
 30
0.0
 11
10561.285533543791
 21
82441.487685391287
 31
0.0
  0
LINE
  5
2F7
  8
SAIBU
 10
10594.285533543791
 20
82373.487685391287
 30
0.0
 11
10561.285533543791
 21
82373.487685391287
 31
0.0
  0
LINE
  5
2F8
  8
SAIBU
 10
10061.285533543791
 20
82441.487685391287
 30
0.0
 11
10094.285533543791
 21
82441.487685391287
 31
0.0
  0
LINE
  5
2F9
  8
SAIBU
 10
10094.285533543791
 20
82441.487685391287
 30
0.0
 11
10094.285533543791
 21
82373.487685391287
 31
0.0
  0
LINE
  5
2FA
  8
SAIBU
 10
10061.285533543791
 20
82373.487685391287
 30
0.0
 11
10061.285533543791
 21
82441.487685391287
 31
0.0
  0
LINE
  5
2FB
  8
SAIBU
 10
10094.285533543791
 20
82373.487685391287
 30
0.0
 11
10061.285533543791
 21
82373.487685391287
 31
0.0
  0
LINE
  5
2FC
  8
SAIBU
 10
9561.2855335437926
 20
82441.487685391287
 30
0.0
 11
9594.2855335437926
 21
82441.487685391287
 31
0.0
  0
LINE
  5
2FD
  8
SAIBU
 10
9594.2855335437926
 20
82441.487685391287
 30
0.0
 11
9594.2855335437926
 21
82373.487685391287
 31
0.0
  0
LINE
  5
2FE
  8
SAIBU
 10
9561.2855335437926
 20
82373.487685391287
 30
0.0
 11
9561.2855335437926
 21
82441.487685391287
 31
0.0
  0
LINE
  5
2FF
  8
SAIBU
 10
9594.2855335437926
 20
82373.487685391287
 30
0.0
 11
9561.2855335437926
 21
82373.487685391287
 31
0.0
  0
LINE
  5
300
  8
SAIBU
 10
14293.068560813381
 20
82127.263559098414
 30
0.0
 11
14242.819984064379
 21
82127.263559098414
 31
0.0
  0
LINE
  5
301
  8
SAIBU
 10
14242.819984064379
 20
82127.263559098414
 30
0.0
 11
14242.819984064379
 21
82070.621466982411
 31
0.0
  0
LINE
  5
302
  8
SAIBU
 10
14365.3901268887
 20
82070.621466982411
 30
0.0
 11
14365.3901268887
 21
82283.449770912819
 31
0.0
  0
LINE
  5
303
  8
SAIBU
 10
14365.3901268887
 20
82283.449770912819
 30
0.0
 11
14390.262610484489
 21
82283.449770912819
 31
0.0
  0
LINE
  5
304
  8
SAIBU
 10
14390.262610484489
 20
82283.449770912819
 30
0.0
 11
14390.262610484489
 21
82070.621466982411
 31
0.0
  0
LINE
  5
305
  8
SAIBU
 10
15232.60658306838
 20
82283.449770912819
 30
0.0
 11
15232.60658306838
 21
82070.621466982411
 31
0.0
  0
LINE
  5
306
  8
SAIBU
 10
15207.73409947258
 20
82283.449770912819
 30
0.0
 11
15232.60658306838
 21
82283.449770912819
 31
0.0
  0
LINE
  5
307
  8
SAIBU
 10
15207.73409947258
 20
82070.621466982411
 30
0.0
 11
15207.73409947258
 21
82283.449770912819
 31
0.0
  0
LINE
  5
308
  8
CENTER
 62
     6
 10
6455.8699127585287
 20
80920.629476050264
 30
0.0
 11
6455.8699127585287
 21
82158.083020938328
 31
0.0
  0
ARC
  5
309
  8
SAIBU
 10
18670.190012196948
 20
81920.823831284652
 30
0.0
 40
161.3757962075203
 50
282.34277330487822
 51
307.35248584344862
  0
ARC
  5
30A
  8
SAIBU
 10
17721.549813320042
 20
81920.823831284652
 30
0.0
 40
161.3757962075203
 50
232.6475141565513
 51
257.65722669512172
  0
ARC
  5
30B
  8
SAIBU
 10
17420.190012196948
 20
81920.823831284652
 30
0.0
 40
161.3757962075203
 50
282.34277330487822
 51
307.35248584344862
  0
ARC
  5
30C
  8
SAIBU
 10
16261.64765299926
 20
81944.715976235035
 30
0.0
 40
9.6402722591737984
 50
90.0
 51
180.0
  0
ARC
  5
30D
  8
SAIBU
 10
16380.09217251761
 20
81944.715976235035
 30
0.0
 40
9.6402722591737984
 50
0.0
 51
90.0
  0
LINE
  5
30E
  8
SAIBU
 10
16389.732444776801
 20
81944.715976235035
 30
0.0
 11
16389.732444776801
 21
81893.98088150291
 31
0.0
  0
LINE
  5
30F
  8
SAIBU
 10
16252.007380740069
 20
81944.715976235035
 30
0.0
 11
16252.007380740069
 21
81764.231535214058
 31
0.0
  0
ARC
  5
310
  8
SAIBU
 10
20122.424210331748
 20
81937.048014049127
 30
0.0
 40
17.308234445081322
 50
0.0
 51
90.0
  0
LINE
  5
311
  8
CENTER
 10
16945.869912758499
 20
76766.898718627519
 30
0.0
 11
16945.869912758499
 21
74276.898718627519
 31
0.0
  0
LINE
  5
312
  8
CENTER
 10
8932.9323208508795
 20
75521.898718627577
 30
0.0
 11
21496.619658304709
 21
75521.898718627577
 31
0.0
  0
LINE
  5
313
  8
CENTER
 10
9845.8699127583895
 20
76160.379117505916
 30
0.0
 11
9845.8699127583895
 21
74884.716011943936
 31
0.0
  0
LINE
  5
314
  8
HONTAIGAIKEI
 10
8955.8699127583895
 20
76766.898718627577
 30
0.0
 11
20945.86991275804
 21
76766.898718627577
 31
0.0
  0
LINE
  5
316
  8
HONTAIGAIKEI
 10
8955.8699127583895
 20
76766.898718627577
 30
0.0
 11
8955.8699127583895
 21
74276.898718627577
 31
0.0
  0
LINE
  5
317
  8
HONTAIGAIKEI
 10
20945.86991275804
 20
74276.898718627577
 30
0.0
 11
8955.8699127583895
 21
74276.898718627577
 31
0.0
  0
LINE
  5
318
  8
HONTAIGAIKEI
 10
20945.86991275804
 20
76766.898718627577
 30
0.0
 11
20945.86991275804
 21
74276.898718627577
 31
0.0
  0
LINE
  5
319
  8
CENTER
 10
19445.869912758561
 20
76766.898718627577
 30
0.0
 11
19445.869912758499
 21
74276.898718627577
 31
0.0
  0
LINE
  5
31A
  8
CENTER
 10
18195.86991275839
 20
76766.898718627577
 30
0.0
 11
18195.86991275839
 21
74276.898718627577
 31
0.0
  0
LINE
  5
31B
  8
CENTER
 10
6455.8699127585287
 20
79818.09496842041
 30
0.0
 11
6455.8699127585287
 21
77328.09496842041
 31
0.0
  0
LINE
  5
31C
  8
CENTER
 10
4673.4394672230701
 20
78573.09496842041
 30
0.0
 11
11773.09338453895
 21
78573.09496842041
 31
0.0
  0
LINE
  5
31D
  8
HONTAIGAIKEI
 10
5355.8699127584687
 20
77328.09496842041
 30
0.0
 11
7155.8699127584696
 21
77328.09496842041
 31
0.0
  0
LINE
  5
31E
  8
HONTAIGAIKEI
 10
5355.8699127584687
 20
79818.09496842041
 30
0.0
 11
7155.8699127584696
 21
79818.09496842041
 31
0.0
  0
ARC
  5
31F
  8
HONTAIGAIKEI
 10
7355.8699127584696
 20
77428.09496842041
 30
0.0
 40
100.0
 50
180.0
 51
270.0
  0
ARC
  5
320
  8
HONTAIGAIKEI
 10
7355.8699127584696
 20
79718.09496842041
 30
0.0
 40
100.0
 50
90.0
 51
180.0
  0
ARC
  5
321
  8
HONTAIGAIKEI
 10
7155.8699127584696
 20
77428.09496842041
 30
0.0
 40
100.0
 50
270.0
 51
0.0
  0
ARC
  5
322
  8
HONTAIGAIKEI
 10
7155.8699127584696
 20
79718.09496842041
 30
0.0
 40
100.0
 50
0.0
 51
90.0
  0
LINE
  5
323
  8
HONTAIGAIKEI
 10
7255.8699127584696
 20
77428.09496842041
 30
0.0
 11
7255.8699127584696
 21
79718.09496842041
 31
0.0
  0
LINE
  5
324
  8
HONTAIGAIKEI
 10
11331.27186285087
 20
77328.09496842041
 30
0.0
 11
7355.8699127584696
 21
77328.09496842041
 31
0.0
  0
LINE
  5
325
  8
HONTAIGAIKEI
 10
7355.8699127584696
 20
79818.09496842041
 30
0.0
 11
11331.27186285087
 21
79818.09496842041
 31
0.0
  0
LINE
  5
326
  8
CENTER
 10
9410.8699127584696
 20
79818.094968420352
 30
0.0
 11
9410.8699127584696
 21
77328.094968420352
 31
0.0
  0
LINE
  5
327
  8
CENTER
 10
9845.8699127585278
 20
79211.575367298807
 30
0.0
 11
9845.8699127585278
 21
77935.912261736827
 31
0.0
  0
LINE
  5
328
  8
CENTER
 10
10710.86991275794
 20
79818.09496842041
 30
0.0
 11
10710.86991275794
 21
77328.09496842041
 31
0.0
  0
LINE
  5
329
  8
HONTAIGAIKEI
 10
11331.27186285087
 20
77328.09496842041
 30
0.0
 11
11435.869912758521
 21
77427.923844321645
 31
0.0
  0
LINE
  5
32A
  8
HONTAIGAIKEI
 10
11331.27186285081
 20
79818.09496842041
 30
0.0
 11
11435.869912758521
 21
79718.266092519043
 31
0.0
  0
LINE
  5
32B
  8
HONTAIGAIKEI
 10
11435.869912758521
 20
77427.923844321704
 30
0.0
 11
11435.869912758521
 21
79718.266092519116
 31
0.0
  0
ARC
  5
32C
  8
HONTAIGAIKEI
 10
5355.8699127584687
 20
77628.09496842041
 30
0.0
 40
300.0
 50
180.0
 51
270.0
  0
ARC
  5
32D
  8
HONTAIGAIKEI
 10
5355.8699127584687
 20
79518.09496842041
 30
0.0
 40
300.0
 50
90.0
 51
180.0
  0
LINE
  5
32E
  8
HONTAIGAIKEI
 10
5055.8699127584696
 20
77628.09496842041
 30
0.0
 11
5055.8699127584696
 21
79518.09496842041
 31
0.0
  0
ENDSEC
  0
EOF
