  0
SECTION
  2
HEADER
  9
$ACADVER
  1
AC1009
  9
$INSBASE
 10
9492.1244370179975
 20
16028.27195363126
 30
0.0
  9
$EXTMIN
 10
3658.4327963998662
 20
10010.15503476682
 30
0.0
  9
$EXTMAX
 10
21529.196985362531
 20
18953.14160473779
 30
0.0
  9
$LIMMIN
 10
0.0
 20
0.0
  9
$LIMMAX
 10
420.0
 20
297.0
  9
$ORTHOMODE
 70
     1
  9
$REGENMODE
 70
     1
  9
$FILLMODE
 70
     1
  9
$QTEXTMODE
 70
     0
  9
$MIRRTEXT
 70
     1
  9
$DRAGMODE
 70
     2
  9
$LTSCALE
 40
500.0
  9
$OSMODE
 70
    44
  9
$ATTMODE
 70
     1
  9
$TEXTSIZE
 40
2.5
  9
$TRACEWID
 40
1.0
  9
$TEXTSTYLE
  7
STANDARD
  9
$CLAYER
  8
DIMENSION
  9
$CELTYPE
  6
BYLAYER
  9
$CECOLOR
 62
   256
  9
$DIMSCALE
 40
1500.0
  9
$DIMASZ
 40
0.18
  9
$DIMEXO
 40
0.0625
  9
$DIMDLI
 40
0.38
  9
$DIMRND
 40
0.0
  9
$DIMDLE
 40
0.0
  9
$DIMEXE
 40
0.14
  9
$DIMTP
 40
0.0
  9
$DIMTM
 40
0.0
  9
$DIMTXT
 40
0.18
  9
$DIMCEN
 40
0.09
  9
$DIMTSZ
 40
0.0
  9
$DIMTOL
 70
     0
  9
$DIMLIM
 70
     0
  9
$DIMTIH
 70
     0
  9
$DIMTOH
 70
     0
  9
$DIMSE1
 70
     0
  9
$DIMSE2
 70
     0
  9
$DIMTAD
 70
     1
  9
$DIMZIN
 70
     0
  9
$DIMBLK
  1

  9
$DIMASO
 70
     1
  9
$DIMSHO
 70
     1
  9
$DIMPOST
  1

  9
$DIMAPOST
  1

  9
$DIMALT
 70
     0
  9
$DIMALTD
 70
     2
  9
$DIMALTF
 40
25.399999999999999
  9
$DIMLFAC
 40
1.0
  9
$DIMTOFL
 70
     1
  9
$DIMTVP
 40
0.0
  9
$DIMTIX
 70
     0
  9
$DIMSOXD
 70
     0
  9
$DIMSAH
 70
     0
  9
$DIMBLK1
  1

  9
$DIMBLK2
  1

  9
$DIMSTYLE
  2
STANDARD
  9
$DIMCLRD
 70
     0
  9
$DIMCLRE
 70
     0
  9
$DIMCLRT
 70
     0
  9
$DIMTFAC
 40
1.0
  9
$DIMGAP
 40
0.05
  9
$LUNITS
 70
     2
  9
$LUPREC
 70
     4
  9
$SKETCHINC
 40
1.0
  9
$FILLETRAD
 40
10.0
  9
$AUNITS
 70
     0
  9
$AUPREC
 70
     0
  9
$MENU
  1
.
  9
$ELEVATION
 40
0.0
  9
$PELEVATION
 40
0.0
  9
$THICKNESS
 40
0.0
  9
$LIMCHECK
 70
     0
  9
$BLIPMODE
 70
     0
  9
$CHAMFERA
 40
10.0
  9
$CHAMFERB
 40
10.0
  9
$SKPOLY
 70
     0
  9
$TDCREATE
 40
2454165.6815858218
  9
$TDUPDATE
 40
2455575.6480409028
  9
$TDINDWG
 40
0.0825298264
  9
$TDUSRTIMER
 40
0.0825298264
  9
$USRTIMER
 70
     1
  9
$ANGBASE
 50
0.0
  9
$ANGDIR
 70
     0
  9
$PDMODE
 70
     0
  9
$PDSIZE
 40
0.0
  9
$PLINEWID
 40
0.0
  9
$COORDS
 70
     0
  9
$SPLFRAME
 70
     0
  9
$SPLINETYPE
 70
     6
  9
$SPLINESEGS
 70
     8
  9
$ATTDIA
 70
     0
  9
$ATTREQ
 70
     1
  9
$HANDLING
 70
     1
  9
$HANDSEED
  5
52B
  9
$SURFTAB1
 70
     6
  9
$SURFTAB2
 70
     6
  9
$SURFTYPE
 70
     6
  9
$SURFU
 70
     6
  9
$SURFV
 70
     6
  9
$UCSNAME
  2

  9
$UCSORG
 10
0.0
 20
0.0
 30
0.0
  9
$UCSXDIR
 10
1.0
 20
0.0
 30
0.0
  9
$UCSYDIR
 10
0.0
 20
1.0
 30
0.0
  9
$PUCSNAME
  2

  9
$PUCSORG
 10
0.0
 20
0.0
 30
0.0
  9
$PUCSXDIR
 10
1.0
 20
0.0
 30
0.0
  9
$PUCSYDIR
 10
0.0
 20
1.0
 30
0.0
  9
$USERI1
 70
     0
  9
$USERI2
 70
     0
  9
$USERI3
 70
     0
  9
$USERI4
 70
     0
  9
$USERI5
 70
     0
  9
$USERR1
 40
0.0
  9
$USERR2
 40
0.0
  9
$USERR3
 40
0.0
  9
$USERR4
 40
0.0
  9
$USERR5
 40
0.0
  9
$WORLDVIEW
 70
     1
  9
$SHADEDGE
 70
     3
  9
$SHADEDIF
 70
    70
  9
$TILEMODE
 70
     1
  9
$MAXACTVP
 70
    64
  9
$PLIMCHECK
 70
     0
  9
$PEXTMIN
 10
0.0
 20
0.0
 30
0.0
  9
$PEXTMAX
 10
0.0
 20
0.0
 30
0.0
  9
$PLIMMIN
 10
0.0
 20
0.0
  9
$PLIMMAX
 10
12.0
 20
9.0
  9
$UNITMODE
 70
     0
  9
$VISRETAIN
 70
     1
  9
$PLINEGEN
 70
     0
  9
$PSLTSCALE
 70
     1
  0
ENDSEC
  0
SECTION
  2
TABLES
  0
TABLE
  2
VPORT
 70
     3
  0
VPORT
  2
*ACTIVE
 70
     0
 10
0.0
 20
0.0
 11
1.0
 21
1.0
 12
12791.818707380709
 22
14382.089266044781
 13
0.0
 23
0.0
 14
10.0
 24
10.0
 15
10.0
 25
10.0
 16
0.0
 26
0.0
 36
1.0
 17
0.0
 27
0.0
 37
0.0
 40
12185.595946595069
 41
1.6793478260869561
 42
50.0
 43
0.0
 44
0.0
 50
0.0
 51
0.0
 71
     0
 72
   100
 73
     1
 74
     1
 75
     0
 76
     0
 77
     0
 78
     0
  0
ENDTAB
  0
TABLE
  2
LTYPE
 70
     2
  0
LTYPE
  2
CONTINUOUS
 70
     0
  3
Solid line
 72
    65
 73
     0
 40
0.0
  0
LTYPE
  2
CENTER
 70
     0
  3
____ _ ____ _ ____ _ ____ _ ____ _ ____ _ ____ 
 72
    65
 73
     4
 40
2.0
 49
1.25
 49
-0.25
 49
0.25
 49
-0.25
  0
ENDTAB
  0
TABLE
  2
LAYER
 70
     6
  0
LAYER
  2
0
 70
     0
 62
     7
  6
CONTINUOUS
  0
LAYER
  2
CENTER
 70
     0
 62
     6
  6
CENTER
  0
LAYER
  2
HONTAIGAIKEI
 70
     0
 62
     2
  6
CONTINUOUS
  0
LAYER
  2
DOUSEN
 70
     0
 62
     3
  6
CONTINUOUS
  0
LAYER
  2
DIMENSION
 70
     0
 62
     1
  6
CONTINUOUS
  0
LAYER
  2
TLINE
 70
     0
 62
     1
  6
CONTINUOUS
  0
ENDTAB
  0
TABLE
  2
STYLE
 70
     1
  0
STYLE
  2
STANDARD
 70
     0
 40
0.0
 41
1.0
 50
0.0
 71
     0
 42
2.5
  3
txt.shx
  4
extfont2.shx
  0
ENDTAB
  0
TABLE
  2
VIEW
 70
     0
  0
ENDTAB
  0
TABLE
  2
UCS
 70
     0
  0
ENDTAB
  0
TABLE
  2
APPID
 70
     7
  0
APPID
  2
ACAD
 70
     0
  0
APPID
  2
RAK
 70
     0
  0
APPID
  2
ACAD_DSTYLE_DIMJOGGED_JOGA
 70
     0
  0
APPID
  2
ACAD_DSTYLE_DIMEXT_ENABLED
 70
     0
  0
APPID
  2
ACAD_DSTYLE_DIMEXT_LENGTH
 70
     0
  0
APPID
  2
ACAD_DSTYLE_DIMARC_LENGTH_
 70
     0
  0
APPID
  2
ACAECLAYERSTANDARD
 70
     0
  0
ENDTAB
  0
TABLE
  2
DIMSTYLE
 70
     1
  0
DIMSTYLE
  2
STANDARD
 70
     0
  3

  4

  5

  6

  7

 40
1500.0
 41
0.18
 42
0.0625
 43
0.38
 44
0.14
 45
0.0
 46
0.0
 47
0.0
 48
0.0
140
0.18
141
0.09
142
0.0
143
25.399999999999999
144
1.0
145
0.0
146
1.0
147
0.05
 71
     0
 72
     0
 73
     0
 74
     0
 75
     0
 76
     0
 77
     1
 78
     0
170
     0
171
     2
172
     1
173
     0
174
     0
175
     0
176
     0
177
     0
178
     0
  0
ENDTAB
  0
ENDSEC
  0
SECTION
  2
BLOCKS
  0
BLOCK
  8
0
  2
$MODEL_SPACE
 70
     0
 10
0.0
 20
0.0
 30
0.0
  3
$MODEL_SPACE
  1

  0
ENDBLK
  5
C
  8
0
  0
BLOCK
 67
     1
  8
0
  2
$PAPER_SPACE
 70
     0
 10
0.0
 20
0.0
 30
0.0
  3
$PAPER_SPACE
  1

  0
ENDBLK
  5
11
 67
     1
  8
0
  0
ENDSEC
  0
SECTION
  2
ENTITIES
  0
LINE
  5
34
  8
HONTAIGAIKEI
 10
20872.124437017999
 20
12500.15503476682
 30
0.0
 11
20872.124437017999
 21
10010.15503476682
 31
0.0
  0
LINE
  5
36
  8
HONTAIGAIKEI
 10
20872.124437017999
 20
10010.15503476682
 30
0.0
 11
11972.124437017999
 21
10010.15503476682
 31
0.0
  0
LINE
  5
37
  8
HONTAIGAIKEI
 10
11972.124437017999
 20
12500.15503476682
 30
0.0
 11
11972.124437017999
 21
10010.15503476682
 31
0.0
  0
LINE
  5
38
  8
HONTAIGAIKEI
 10
11472.124437017999
 20
12300.155034766831
 30
0.0
 11
11822.124437018059
 21
12300.155034766831
 31
0.0
  0
LINE
  5
39
  8
HONTAIGAIKEI
 10
11822.124437017999
 20
10210.155034766831
 30
0.0
 11
11472.124437017999
 21
10210.155034766831
 31
0.0
  0
LINE
  5
3A
  8
HONTAIGAIKEI
 10
11822.124437017999
 20
12300.155034766831
 30
0.0
 11
11822.124437017999
 21
12255.15503476682
 31
0.0
  0
LINE
  5
3B
  8
HONTAIGAIKEI
 10
11472.124437017999
 20
12300.155034766831
 30
0.0
 11
11472.124437017999
 21
12255.15503476682
 31
0.0
  0
LINE
  5
3C
  8
HONTAIGAIKEI
 10
11822.124437017999
 20
10255.15503476682
 30
0.0
 11
11822.124437018059
 21
10210.155034766831
 31
0.0
  0
LINE
  5
3D
  8
HONTAIGAIKEI
 10
11472.124437017999
 20
10255.15503476682
 30
0.0
 11
11472.124437018059
 21
10210.155034766831
 31
0.0
  0
LINE
  5
3E
  8
HONTAIGAIKEI
 10
11572.124437018059
 20
12450.15503476682
 30
0.0
 11
11972.124437018059
 21
12450.15503476682
 31
0.0
  0
LINE
  5
3F
  8
HONTAIGAIKEI
 10
11972.124437018059
 20
10060.15503476682
 30
0.0
 11
11572.124437018059
 21
10060.15503476682
 31
0.0
  0
LINE
  5
40
  8
HONTAIGAIKEI
 10
11372.124437018059
 20
12250.155034766771
 30
0.0
 11
11372.124437018059
 21
12250.15503476682
 31
0.0
  0
LINE
  5
41
  8
HONTAIGAIKEI
 10
11372.124437018059
 20
10260.15503476682
 30
0.0
 11
11372.124437018059
 21
10260.15503476688
 31
0.0
  0
ARC
  5
42
  8
HONTAIGAIKEI
 10
11572.124437018059
 20
12250.15503476682
 30
0.0
 40
200.0
 50
90.0
 51
180.0
  0
ARC
  5
43
  8
HONTAIGAIKEI
 10
11572.124437018059
 20
10260.15503476682
 30
0.0
 40
200.0
 50
180.0
 51
270.0
  0
LINE
  5
44
  8
HONTAIGAIKEI
 10
11972.124437017999
 20
12500.15503476682
 30
0.0
 11
20872.124437017999
 21
12500.15503476682
 31
0.0
  0
LINE
  5
45
  8
HONTAIGAIKEI
 10
10402.124437018119
 20
12255.15503476682
 30
0.0
 11
11972.124437017999
 21
12255.15503476682
 31
0.0
  0
LINE
  5
46
  8
HONTAIGAIKEI
 10
11972.124437017999
 20
10255.15503476682
 30
0.0
 11
10402.12443701801
 21
10255.15503476682
 31
0.0
  0
LINE
  5
47
  8
HONTAIGAIKEI
 10
9042.1244370179957
 20
12047.42303878209
 30
0.0
 11
9042.1244370179957
 21
10462.887030751501
 31
0.0
  0
LINE
  5
48
  8
HONTAIGAIKEI
 10
10402.12443701807
 20
12255.15503476682
 30
0.0
 11
9173.714398019878
 21
12162.465588155839
 31
0.0
  0
LINE
  5
49
  8
HONTAIGAIKEI
 10
10402.12443701807
 20
10255.15503476682
 30
0.0
 11
9173.7143980198198
 21
10347.844481377861
 31
0.0
  0
LINE
  5
4A
  8
HONTAIGAIKEI
 10
9173.7143980198198
 20
12162.465588155839
 30
0.0
 11
9042.1244370179957
 21
12047.42303878209
 31
0.0
  0
LINE
  5
4B
  8
HONTAIGAIKEI
 10
9173.7143980198198
 20
10347.84448137781
 30
0.0
 11
9042.1244370179957
 21
10462.887030751501
 31
0.0
  0
LINE
  5
4C
  8
CENTER
 10
9492.1244370180466
 20
11893.63543364516
 30
0.0
 11
9492.1244370180466
 21
10617.97232808318
 31
0.0
  0
LINE
  5
4F
  8
CENTER
 10
8929.1868451108367
 20
11255.155034766831
 30
0.0
 11
21422.874182564661
 21
11255.155034766831
 31
0.0
  0
LINE
  5
50
  8
HONTAIGAIKEI
 10
4817.1244370180102
 20
12989.40801568092
 30
0.0
 11
4817.1244370180102
 21
14879.40801568092
 31
0.0
  0
ARC
  5
51
  8
HONTAIGAIKEI
 10
5117.1244370180102
 20
14879.40801568092
 30
0.0
 40
300.0
 50
90.0
 51
180.0
  0
ARC
  5
52
  8
HONTAIGAIKEI
 10
5117.1244370180102
 20
12989.40801568092
 30
0.0
 40
300.0
 50
180.0
 51
270.0
  0
LINE
  5
53
  8
HONTAIGAIKEI
 10
11252.41433968373
 20
12789.23689158221
 30
0.0
 11
11252.41433968373
 21
15079.57913977962
 31
0.0
  0
LINE
  5
54
  8
HONTAIGAIKEI
 10
11147.816289776019
 20
15179.40801568092
 30
0.0
 11
11252.41433968373
 21
15079.57913977956
 31
0.0
  0
LINE
  5
55
  8
HONTAIGAIKEI
 10
11147.816289776079
 20
12689.40801568092
 30
0.0
 11
11252.41433968373
 21
12789.23689158215
 31
0.0
  0
LINE
  5
56
  8
CENTER
 10
10417.12443701801
 20
15179.40801568092
 30
0.0
 11
10417.12443701801
 21
12689.40801568092
 31
0.0
  0
LINE
  5
57
  8
CENTER
 10
9492.1244370180684
 20
14572.888414559249
 30
0.0
 11
9492.1244370180684
 21
13297.22530899728
 31
0.0
  0
LINE
  5
58
  8
CENTER
 10
9117.1244370180102
 20
15179.40801568092
 30
0.0
 11
9117.1244370180102
 21
12689.40801568092
 31
0.0
  0
LINE
  5
59
  8
HONTAIGAIKEI
 10
6917.124437017952
 20
15179.40801568092
 30
0.0
 11
11147.816289776079
 21
15179.40801568092
 31
0.0
  0
LINE
  5
5A
  8
HONTAIGAIKEI
 10
11147.816289776079
 20
12689.40801568092
 30
0.0
 11
6917.124437017952
 21
12689.40801568092
 31
0.0
  0
LINE
  5
5B
  8
HONTAIGAIKEI
 10
6817.124437017952
 20
12789.40801568092
 30
0.0
 11
6817.124437017952
 21
15079.40801568091
 31
0.0
  0
ARC
  5
5C
  8
HONTAIGAIKEI
 10
6717.124437017952
 20
15079.40801568091
 30
0.0
 40
100.0
 50
0.0
 51
90.0
  0
ARC
  5
5D
  8
HONTAIGAIKEI
 10
6717.124437017952
 20
12789.40801568092
 30
0.0
 40
100.0
 50
270.0
 51
0.0
  0
ARC
  5
5E
  8
HONTAIGAIKEI
 10
6917.124437017952
 20
15079.40801568091
 30
0.0
 40
100.0
 50
90.0
 51
180.0
  0
ARC
  5
5F
  8
HONTAIGAIKEI
 10
6917.124437017952
 20
12789.40801568092
 30
0.0
 40
100.0
 50
180.0
 51
270.0
  0
LINE
  5
60
  8
HONTAIGAIKEI
 10
5117.1244370180102
 20
15179.40801568092
 30
0.0
 11
6717.124437017952
 21
15179.40801568092
 31
0.0
  0
LINE
  5
61
  8
HONTAIGAIKEI
 10
5117.1244370180102
 20
12689.40801568092
 30
0.0
 11
6717.124437017952
 21
12689.40801568092
 31
0.0
  0
LINE
  5
62
  8
CENTER
 10
4434.6939914826098
 20
13934.40801568092
 30
0.0
 11
11589.637811464159
 21
13934.40801568092
 31
0.0
  0
LINE
  5
63
  8
CENTER
 10
6017.1244370180111
 20
15179.40801568092
 30
0.0
 11
6017.1244370180111
 21
12689.40801568092
 31
0.0
  0
LINE
  5
64
  8
CENTER
 10
19872.124437018039
 20
12500.15503476682
 30
0.0
 11
19872.124437017981
 21
10010.15503476682
 31
0.0
  0
LINE
  5
65
  8
CENTER
 10
18522.124437018039
 20
12500.15503476682
 30
0.0
 11
18522.124437017981
 21
10010.15503476682
 31
0.0
  0
LINE
  5
66
  8
CENTER
 10
17172.124437018039
 20
12500.15503476682
 30
0.0
 11
17172.124437017981
 21
10010.15503476682
 31
0.0
  0
LINE
  5
67
  8
DOUSEN
 62
     3
 10
3658.4327963998662
 20
16028.27195363126
 30
0.0
 11
21529.196985362531
 21
16028.27195363126
 31
0.0
  0
LINE
  5
69
  8
CENTER
 10
6017.1244370179948
 20
17251.594672881511
 30
0.0
 11
6017.1244370179948
 21
15904.949234381
 31
0.0
  0
LINE
  5
6A
  8
CENTER
 10
9117.1244370179975
 20
17251.594672881511
 30
0.0
 11
9117.1244370179975
 21
15904.949234381
 31
0.0
  0
LINE
  5
6B
  8
CENTER
 10
10417.12443701799
 20
17251.594672881511
 30
0.0
 11
10417.12443701799
 21
15904.949234381
 31
0.0
  0
LINE
  5
6C
  8
HONTAIGAIKEI
 10
4817.1244370179948
 20
16858.271953631262
 30
0.0
 11
4817.1244370179948
 21
16688.271953631262
 31
0.0
  0
CIRCLE
  5
6D
  8
HONTAIGAIKEI
 10
6017.1244370180111
 20
16578.271953631262
 30
0.0
 40
550.0
  0
CIRCLE
  5
6E
  8
TLINE
 10
6017.1244370180111
 20
16578.271953631262
 30
0.0
 40
325.0
  0
CIRCLE
  5
71
  8
TLINE
 10
6017.1244370180111
 20
16578.271953631262
 30
0.0
 40
290.0
  0
CIRCLE
  5
72
  8
TLINE
 10
9117.1244370179975
 20
16578.271953631262
 30
0.0
 40
290.0
  0
CIRCLE
  5
73
  8
TLINE
 10
9117.1244370179975
 20
16578.271953631262
 30
0.0
 40
325.0
  0
CIRCLE
  5
74
  8
HONTAIGAIKEI
 10
9117.1244370179975
 20
16578.271953631262
 30
0.0
 40
550.0
  0
CIRCLE
  5
75
  8
TLINE
 10
10417.12443701799
 20
16578.271953631262
 30
0.0
 40
290.0
  0
CIRCLE
  5
76
  8
TLINE
 10
10417.12443701799
 20
16578.271953631262
 30
0.0
 40
325.0
  0
CIRCLE
  5
77
  8
HONTAIGAIKEI
 10
10417.12443701799
 20
16578.271953631262
 30
0.0
 40
550.0
  0
LINE
  5
78
  8
CENTER
 10
5343.8017177677584
 20
16578.271953631262
 30
0.0
 11
6690.4471562682629
 21
16578.271953631262
 31
0.0
  0
LINE
  5
79
  8
CENTER
 10
8443.8017177677448
 20
16578.271953631262
 30
0.0
 11
9790.4471562682502
 21
16578.271953631262
 31
0.0
  0
LINE
  5
7A
  8
CENTER
 10
9743.8017177677448
 20
16578.271953631262
 30
0.0
 11
11090.44715626825
 21
16578.271953631262
 31
0.0
  0
LINE
  5
7B
  8
HONTAIGAIKEI
 10
9042.1244370179957
 20
17478.271953631262
 30
0.0
 11
11084.95541546158
 21
17478.271953631262
 31
0.0
  0
LINE
  5
7C
  8
TLINE
 10
9042.1244370179957
 20
17778.271953631262
 30
0.0
 11
11972.12443701799
 21
17778.271953631262
 31
0.0
  0
LINE
  5
7D
  8
TLINE
 10
11972.12443701799
 20
17778.271953631262
 30
0.0
 11
11972.12443701801
 21
16798.271953631262
 31
0.0
  0
LINE
  5
7E
  8
HONTAIGAIKEI
 10
9042.1244370179957
 20
17778.271953631262
 30
0.0
 11
9042.1244370179957
 21
17758.271953631262
 31
0.0
  0
LINE
  5
7F
  8
CENTER
 10
9767.1244370179975
 20
17235.336878421051
 30
0.0
 11
9767.1244370179975
 21
15904.949234381
 31
0.0
  0
LINE
  5
80
  8
CENTER
 10
9492.1244370179975
 20
17989.669432672061
 30
0.0
 11
9492.1244370179975
 21
15904.949234381
 31
0.0
  0
LINE
  5
81
  8
HONTAIGAIKEI
 10
7117.1244370179957
 20
17278.271953631262
 30
0.0
 11
10383.71829249845
 21
17278.271953631262
 31
0.0
  0
LINE
  5
82
  8
HONTAIGAIKEI
 10
7117.1244370179957
 20
17218.271953631262
 30
0.0
 11
10395.47395792852
 21
17218.271953631262
 31
0.0
  0
LINE
  5
83
  8
HONTAIGAIKEI
 10
7217.1244370179957
 20
18928.271953631262
 30
0.0
 11
7217.1244370179957
 21
17278.271953631262
 31
0.0
  0
LINE
  5
84
  8
HONTAIGAIKEI
 10
7117.1244370179957
 20
18928.271953631262
 30
0.0
 11
7117.1244370179957
 21
17278.271953631262
 31
0.0
  0
LINE
  5
85
  8
HONTAIGAIKEI
 10
7117.1244370179957
 20
18928.271953631262
 30
0.0
 11
7217.1244370179957
 21
18928.271953631262
 31
0.0
  0
LINE
  5
86
  8
HONTAIGAIKEI
 10
5358.0610878678744
 20
18848.271953631262
 30
0.0
 11
6594.0651210137767
 21
18848.271953631262
 31
0.0
  0
LINE
  5
87
  8
HONTAIGAIKEI
 10
6817.1244370180102
 20
17998.271953631269
 30
0.0
 11
6817.1244370179957
 21
17278.271953631262
 31
0.0
  0
ARC
  5
88
  8
HONTAIGAIKEI
 10
7117.1244370179957
 20
17248.271953631262
 30
0.0
 40
30.0
 50
90.0
 51
270.0
  0
LINE
  5
89
  8
HONTAIGAIKEI
 10
8517.1244370179957
 20
17218.271953631262
 30
0.0
 11
8517.1244370179957
 21
16498.271953631269
 31
0.0
  0
LINE
  5
8A
  8
HONTAIGAIKEI
 10
8467.1244370179957
 20
17218.271953631262
 30
0.0
 11
8467.1244370179957
 21
16498.271953631269
 31
0.0
  0
LINE
  5
8B
  8
TLINE
 10
6708.76904557941
 20
16498.271953631269
 30
0.0
 11
8517.1244370179957
 21
16498.271953631269
 31
0.0
  0
LINE
  5
8C
  8
TLINE
 10
6817.1244370179957
 20
16538.271953631262
 30
0.0
 11
8467.1244370179957
 21
16538.271953631262
 31
0.0
  0
LINE
  5
8D
  8
TLINE
 10
6817.1244370179957
 20
16578.271953631262
 30
0.0
 11
8467.1244370179957
 21
16578.271953631262
 31
0.0
  0
LINE
  5
8E
  8
TLINE
 10
6817.1244370179957
 20
16618.271953631262
 30
0.0
 11
8467.1244370179957
 21
16618.271953631262
 31
0.0
  0
LINE
  5
8F
  8
TLINE
 10
6817.1244370179957
 20
16728.271953631262
 30
0.0
 11
8467.1244370179957
 21
16728.271953631262
 31
0.0
  0
LINE
  5
90
  8
TLINE
 10
6817.1244370179957
 20
16768.271953631262
 30
0.0
 11
8467.1244370179957
 21
16768.271953631262
 31
0.0
  0
LINE
  5
91
  8
TLINE
 10
6817.1244370179957
 20
16808.271953631262
 30
0.0
 11
8467.1244370179957
 21
16808.271953631262
 31
0.0
  0
LINE
  5
92
  8
TLINE
 10
6817.1244370179957
 20
16848.271953631262
 30
0.0
 11
8467.1244370179957
 21
16848.271953631262
 31
0.0
  0
ARC
  5
93
  8
TLINE
 10
6817.1244370179957
 20
16518.271953631262
 30
0.0
 40
20.0
 50
90.0
 51
270.0
  0
ARC
  5
94
  8
TLINE
 10
6817.1244370179957
 20
16558.271953631262
 30
0.0
 40
20.0
 50
90.0
 51
270.0
  0
ARC
  5
95
  8
TLINE
 10
6817.1244370179957
 20
16598.271953631262
 30
0.0
 40
20.0
 50
90.0
 51
270.0
  0
ARC
  5
96
  8
TLINE
 10
6817.1244370179957
 20
16748.271953631262
 30
0.0
 40
20.0
 50
90.0
 51
270.0
  0
ARC
  5
97
  8
TLINE
 10
6817.1244370179957
 20
16788.271953631262
 30
0.0
 40
20.0
 50
90.0
 51
270.0
  0
ARC
  5
98
  8
TLINE
 10
6817.1244370179957
 20
16828.271953631262
 30
0.0
 40
20.0
 50
90.0
 51
270.0
  0
LINE
  5
99
  8
HONTAIGAIKEI
 10
7157.1244370179948
 20
17218.271953631262
 30
0.0
 11
7157.1244370179948
 21
16848.271953631262
 31
0.0
  0
LINE
  5
9A
  8
HONTAIGAIKEI
 10
7117.1244370179957
 20
16728.271953631262
 30
0.0
 11
7117.1244370179957
 21
16618.271953631262
 31
0.0
  0
LINE
  5
9B
  8
HONTAIGAIKEI
 10
7157.1244370179948
 20
16728.271953631262
 30
0.0
 11
7157.1244370179948
 21
16618.271953631262
 31
0.0
  0
LINE
  5
9C
  8
HONTAIGAIKEI
 10
7117.1244370179957
 20
17218.271953631262
 30
0.0
 11
7117.1244370179957
 21
16848.271953631262
 31
0.0
  0
LINE
  5
9D
  8
HONTAIGAIKEI
 10
5243.3676068212553
 20
18763.562255491761
 30
0.0
 11
5017.1244370179948
 21
18028.271953631262
 31
0.0
  0
LINE
  5
9E
  8
HONTAIGAIKEI
 10
5072.6289827618057
 20
16628.271953631262
 30
0.0
 11
5413.098785344966
 21
16628.271953631269
 31
0.0
  0
LINE
  5
9F
  8
HONTAIGAIKEI
 10
5632.7192967063929
 20
18028.271953631262
 30
0.0
 11
6852.1244370179948
 21
18028.271953631262
 31
0.0
  0
LINE
  5
A0
  8
HONTAIGAIKEI
 10
5429.5368293823594
 20
18658.271953631262
 30
0.0
 11
6737.1244370179948
 21
18658.271953631262
 31
0.0
  0
LINE
  5
A1
  8
HONTAIGAIKEI
 10
6817.1244370179957
 20
17998.271953631262
 30
0.0
 11
6817.1244370179957
 21
17228.271953631262
 31
0.0
  0
LINE
  5
A2
  8
HONTAIGAIKEI
 10
5632.7192967063929
 20
17998.271953631262
 30
0.0
 11
6852.1244370179948
 21
17998.271953631262
 31
0.0
  0
LINE
  5
A3
  8
HONTAIGAIKEI
 10
4875.2330858908144
 20
17598.271953631262
 30
0.0
 11
5280.8253361523712
 21
17598.271953631262
 31
0.0
  0
LINE
  5
A4
  8
HONTAIGAIKEI
 10
5228.0370129546391
 20
18713.737825425342
 30
0.0
 11
5406.2179748492381
 21
18652.501254137409
 31
0.0
  0
ARC
  5
A5
  8
HONTAIGAIKEI
 10
5358.0610878678744
 20
18728.271953631262
 30
0.0
 40
120.0
 50
90.0
 51
162.8972710311217
  0
LINE
  5
A6
  8
HONTAIGAIKEI
 10
5087.1244370179957
 20
16868.271953631262
 30
0.0
 11
5087.1244370179957
 21
16678.271953631262
 31
0.0
  0
LINE
  5
A7
  8
HONTAIGAIKEI
 10
4847.1244370179957
 20
16658.271953631262
 30
0.0
 11
5067.1244370179948
 21
16658.271953631262
 31
0.0
  0
LINE
  5
A8
  8
HONTAIGAIKEI
 10
4847.1244370179957
 20
16888.271953631262
 30
0.0
 11
5067.1244370179948
 21
16888.271953631262
 31
0.0
  0
ARC
  5
A9
  8
HONTAIGAIKEI
 10
4847.1244370179957
 20
16858.271953631262
 30
0.0
 40
30.0
 50
90.0
 51
180.0
  0
ARC
  5
AA
  8
HONTAIGAIKEI
 10
4847.1244370179957
 20
16688.271953631262
 30
0.0
 40
30.0
 50
180.0
 51
270.0
  0
ARC
  5
AB
  8
HONTAIGAIKEI
 10
5067.1244370179948
 20
16868.271953631262
 30
0.0
 40
20.0
 50
0.0
 51
90.0
  0
ARC
  5
AC
  8
HONTAIGAIKEI
 10
5067.1244370179948
 20
16678.271953631262
 30
0.0
 40
20.0
 50
270.0
 51
0.0
  0
LINE
  5
AD
  8
HONTAIGAIKEI
 10
5035.7159470618526
 20
16658.271953631262
 30
0.0
 11
5072.6289827618057
 21
16628.271953631262
 31
0.0
  0
LINE
  5
AE
  8
HONTAIGAIKEI
 10
4876.1463733357714
 20
17228.271953631262
 30
0.0
 11
5105.3943306978799
 21
17228.271953631262
 31
0.0
  0
LINE
  5
AF
  8
HONTAIGAIKEI
 10
4896.1463733357559
 20
17298.271953631262
 30
0.0
 11
6817.1244370179957
 21
17298.271953631262
 31
0.0
  0
LINE
  5
B0
  8
HONTAIGAIKEI
 10
4875.2330858908144
 20
17598.271953631262
 30
0.0
 11
5280.8253361523712
 21
17598.271953631262
 31
0.0
  0
LINE
  5
B1
  8
HONTAIGAIKEI
 10
5125.394330697879
 20
17208.271953631262
 30
0.0
 11
5125.394330697879
 21
16992.069221975129
 31
0.0
  0
LINE
  5
B2
  8
HONTAIGAIKEI
 10
4876.1463733357714
 20
16972.069221975129
 30
0.0
 11
5105.3943306978799
 21
16972.069221975129
 31
0.0
  0
ARC
  5
B3
  8
HONTAIGAIKEI
 10
4876.1463733357714
 20
17208.271953631262
 30
0.0
 40
20.0
 50
90.0
 51
180.0
  0
ARC
  5
B4
  8
HONTAIGAIKEI
 10
4876.1463733357714
 20
16992.069221975129
 30
0.0
 40
20.0
 50
180.0
 51
270.0
  0
ARC
  5
B5
  8
HONTAIGAIKEI
 10
5105.3943306978799
 20
17208.271953631262
 30
0.0
 40
20.0
 50
0.0
 51
90.0
  0
ARC
  5
B6
  8
HONTAIGAIKEI
 10
5105.3943306978799
 20
16992.069221975129
 30
0.0
 40
20.0
 50
270.0
 51
0.0
  0
LINE
  5
B7
  8
HONTAIGAIKEI
 10
6817.1244370179957
 20
17228.271953631262
 30
0.0
 11
5878.2563800825919
 21
17228.271953631262
 31
0.0
  0
LINE
  5
B8
  8
HONTAIGAIKEI
 10
4876.1463733357714
 20
16972.069221975129
 30
0.0
 11
4847.1244370179957
 21
16888.271953631262
 31
0.0
  0
LINE
  5
B9
  8
HONTAIGAIKEI
 10
4861.6354051768903
 20
16930.170587803201
 30
0.0
 11
5444.0589192266089
 21
16930.17058780319
 31
0.0
  0
LINE
  5
BA
  8
HONTAIGAIKEI
 10
5646.6269106689178
 20
17118.92291454973
 30
0.0
 11
5521.2687423645002
 21
16966.62026749703
 31
0.0
  0
ARC
  5
BB
  8
HONTAIGAIKEI
 10
5878.2563800825919
 20
16928.271953631262
 30
0.0
 40
300.0
 50
90.0
 51
140.54268390378451
  0
ARC
  5
BC
  8
HONTAIGAIKEI
 10
5444.0589192266089
 20
17030.17058780319
 30
0.0
 40
100.0
 50
270.0
 51
320.54268390378451
  0
LINE
  5
BD
  8
HONTAIGAIKEI
 10
5444.0589192266089
 20
16930.17058780319
 30
0.0
 11
5413.098785344966
 21
16628.271953631269
 31
0.0
  0
LINE
  5
BE
  8
HONTAIGAIKEI
 10
5632.7192967063929
 20
18028.271953631262
 30
0.0
 11
4981.4085542481234
 21
17991.506308834509
 31
0.0
  0
LINE
  5
BF
  8
HONTAIGAIKEI
 10
5632.7192967063929
 20
17998.271953631262
 30
0.0
 11
4948.3092215626266
 21
17957.43411982086
 31
0.0
  0
LINE
  5
C0
  8
HONTAIGAIKEI
 10
5017.1244370179948
 20
18028.271953631262
 30
0.0
 11
4923.4583215463244
 21
17931.85280159429
 31
0.0
  0
LINE
  5
C1
  8
HONTAIGAIKEI
 10
4876.1463733357559
 20
17278.271953631262
 30
0.0
 11
4876.1463733357714
 21
17228.271953631262
 31
0.0
  0
LINE
  5
C2
  8
HONTAIGAIKEI
 10
4856.1463733357714
 20
17208.271953631262
 30
0.0
 11
4856.1463733357714
 21
16992.069221975129
 31
0.0
  0
ARC
  5
C3
  8
HONTAIGAIKEI
 10
4896.1463733357559
 20
17278.271953631262
 30
0.0
 40
20.0
 50
90.0
 51
180.0
  0
LINE
  5
C4
  8
HONTAIGAIKEI
 10
4896.1463733357559
 20
17478.271953631262
 30
0.0
 11
4965.5816445492128
 21
17478.271953631262
 31
0.0
  0
LINE
  5
C5
  8
HONTAIGAIKEI
 10
4923.4583215463244
 20
17931.85280159429
 30
0.0
 11
4867.8514788631037
 21
17547.212322751981
 31
0.0
  0
LINE
  5
C6
  8
HONTAIGAIKEI
 10
4869.4901295753116
 20
17535.961705760179
 30
0.0
 11
4896.1463733357559
 21
17478.271953631262
 31
0.0
  0
LINE
  5
C7
  8
HONTAIGAIKEI
 10
4896.1463733357559
 20
17478.271953631262
 30
0.0
 11
4896.1463733357559
 21
17347.711929163768
 31
0.0
  0
LINE
  5
C8
  8
HONTAIGAIKEI
 10
5242.0876749462795
 20
17974.96348721633
 30
0.0
 11
5242.0876749462795
 21
17298.271953631262
 31
0.0
  0
LINE
  5
C9
  8
HONTAIGAIKEI
 10
5380.7271162373254
 20
18619.116855783868
 30
0.0
 11
5251.0660314984161
 21
18035.550470110629
 31
0.0
  0
LINE
  5
CA
  8
TLINE
 10
5458.2675050813159
 20
18613.941284447941
 30
0.0
 11
5618.6907069068438
 21
18613.941284447941
 31
0.0
  0
LINE
  5
CB
  8
TLINE
 10
5689.946450269741
 20
18583.941284447941
 30
0.0
 11
5689.946450269741
 21
18137.581752420021
 31
0.0
  0
LINE
  5
CC
  8
TLINE
 10
6167.644416582847
 20
18583.941284447941
 30
0.0
 11
6167.644416582847
 21
18137.581752420021
 31
0.0
  0
LINE
  5
CD
  8
TLINE
 10
5409.5576852503191
 20
18575.226383119701
 30
0.0
 11
5295.2435332533678
 21
18081.812731200211
 31
0.0
  0
LINE
  5
CE
  8
TLINE
 10
5325.7190545767853
 20
18045.067709524679
 30
0.0
 11
5619.940336331656
 21
18057.333941305798
 31
0.0
  0
LINE
  5
CF
  8
TLINE
 10
5648.6907069068438
 20
18583.941284447941
 30
0.0
 11
5648.6907069068438
 21
18087.307903778259
 31
0.0
  0
LINE
  5
D0
  8
TLINE
 10
5719.946450269741
 20
18613.941284447941
 30
0.0
 11
6137.644416582848
 21
18613.941284447941
 31
0.0
  0
ARC
  5
D1
  8
TLINE
 10
5458.2675050813159
 20
18563.941284447941
 30
0.0
 40
50.0
 50
90.0
 51
166.9558398512934
  0
ARC
  5
D2
  8
TLINE
 10
5324.4694251519868
 20
18075.041671997151
 30
0.0
 40
30.0
 50
166.9558398512934
 51
272.38730710189469
  0
LINE
  5
D3
  8
HONTAIGAIKEI
 10
5017.1244370179948
 20
18028.271953631262
 30
0.0
 11
5219.3969660280463
 21
18012.152224918558
 31
0.0
  0
ARC
  5
D4
  8
HONTAIGAIKEI
 10
5221.7802036114044
 20
18042.057411402198
 30
0.0
 40
30.0
 50
265.44355033997653
 51
347.47309481816671
  0
ARC
  5
D5
  8
HONTAIGAIKEI
 10
5429.5368293823594
 20
18608.271953631262
 30
0.0
 40
50.0
 50
90.0
 51
167.4730948181666
  0
ARC
  5
D6
  8
TLINE
 10
5618.6907069068438
 20
18583.941284447941
 30
0.0
 40
30.0
 50
0.0
 51
90.0
  0
ARC
  5
D7
  8
TLINE
 10
5618.6907069068438
 20
18087.307903778259
 30
0.0
 40
30.0
 50
272.38730710189469
 51
0.0
  0
LINE
  5
D8
  8
TLINE
 10
5719.946450269741
 20
18107.581752420021
 30
0.0
 11
6137.644416582848
 21
18107.581752420021
 31
0.0
  0
ARC
  5
D9
  8
TLINE
 10
5719.946450269741
 20
18583.941284447941
 30
0.0
 40
30.0
 50
90.0
 51
180.0
  0
ARC
  5
DA
  8
TLINE
 10
6137.644416582848
 20
18583.941284447941
 30
0.0
 40
30.0
 50
0.0
 51
90.0
  0
ARC
  5
DB
  8
TLINE
 10
5719.946450269741
 20
18137.581752420021
 30
0.0
 40
30.0
 50
180.0
 51
270.0
  0
ARC
  5
DC
  8
TLINE
 10
6137.644416582848
 20
18137.581752420021
 30
0.0
 40
30.0
 50
270.0
 51
0.0
  0
LINE
  5
DD
  8
TLINE
 10
6286.6700264979918
 20
18615.243056386898
 30
0.0
 11
6627.489359902208
 21
18615.243056386898
 31
0.0
  0
LINE
  5
DE
  8
TLINE
 10
6286.6700264979918
 20
18107.58175242001
 30
0.0
 11
6682.9013421990558
 21
18107.581752420021
 31
0.0
  0
LINE
  5
DF
  8
TLINE
 10
6256.6700264979918
 20
18585.243056386898
 30
0.0
 11
6256.6700264979918
 21
18137.58175242001
 31
0.0
  0
LINE
  5
E0
  8
TLINE
 10
6657.2621414390924
 20
18588.928362284089
 30
0.0
 11
6712.6741237359429
 21
18141.2670583172
 31
0.0
  0
ARC
  5
E1
  8
TLINE
 10
6286.6700264979918
 20
18585.243056386898
 30
0.0
 40
30.0
 50
90.0
 51
180.0
  0
ARC
  5
E2
  8
TLINE
 10
6286.6700264979918
 20
18137.58175242001
 30
0.0
 40
30.0
 50
180.0
 51
270.0
  0
ARC
  5
E3
  8
TLINE
 10
6627.489359902208
 20
18585.243056386898
 30
0.0
 40
30.0
 50
7.0562393471894147
 51
90.0
  0
ARC
  5
E4
  8
TLINE
 10
6682.9013421990558
 20
18137.581752420021
 30
0.0
 40
30.0
 50
270.0
 51
7.0562393471894147
  0
ARC
  5
E5
  8
HONTAIGAIKEI
 10
6043.877268754095
 20
16928.27195363124
 30
0.0
 40
550.0
 50
90.0
 51
137.72209240101179
  0
LINE
  5
E6
  8
HONTAIGAIKEI
 10
6043.8772687541086
 20
17478.27195363124
 30
0.0
 11
6817.1244370179957
 21
17478.271953631229
 31
0.0
  0
LINE
  5
E7
  8
HONTAIGAIKEI
 10
6200.2148268798082
 20
18028.271953631262
 30
0.0
 11
6200.2148268797928
 21
17478.27195363124
 31
0.0
  0
LINE
  5
E8
  8
HONTAIGAIKEI
 10
6137.644416582848
 20
18107.581752420021
 30
0.0
 11
6200.2148268798082
 21
18028.271953631262
 31
0.0
  0
LINE
  5
E9
  8
TLINE
 10
5636.9374697665808
 20
17267.337220544359
 30
0.0
 11
6766.9383208481186
 21
17267.337220544359
 31
0.0
  0
LINE
  5
EA
  8
TLINE
 10
5636.9374697665953
 20
17298.271953631262
 30
0.0
 11
5636.9374697665953
 21
17267.337220544359
 31
0.0
  0
LINE
  5
EB
  8
TLINE
 10
6766.9383208481186
 20
17267.337220544359
 30
0.0
 11
6766.9383208481186
 21
17298.271953631262
 31
0.0
  0
LINE
  5
EC
  8
HONTAIGAIKEI
 10
5612.6436215515023
 20
17861.737572849732
 30
0.0
 11
5612.6436215515023
 21
17398.4152547698
 31
0.0
  0
LINE
  5
ED
  8
HONTAIGAIKEI
 10
5592.6436215515023
 20
17378.4152547698
 30
0.0
 11
5363.3956641893928
 21
17378.41525476981
 31
0.0
  0
LINE
  5
EE
  8
HONTAIGAIKEI
 10
5343.3956641893928
 20
17398.41525476981
 30
0.0
 11
5343.3956641893928
 21
17861.737572849732
 31
0.0
  0
LINE
  5
EF
  8
HONTAIGAIKEI
 10
5363.3956641893928
 20
17881.737572849732
 30
0.0
 11
5592.6436215515023
 21
17881.737572849732
 31
0.0
  0
LINE
  5
F0
  8
HONTAIGAIKEI
 10
5679.5566572514545
 20
17598.271953631262
 30
0.0
 11
6817.1244370179957
 21
17598.271953631262
 31
0.0
  0
LINE
  5
F1
  8
HONTAIGAIKEI
 10
5679.5566572514545
 20
17598.271953631262
 30
0.0
 11
6817.1244370179957
 21
17598.271953631262
 31
0.0
  0
LINE
  5
F2
  8
HONTAIGAIKEI
 10
5649.5566572514554
 20
17628.271953631262
 30
0.0
 11
5649.5566572514554
 21
17890.78844583239
 31
0.0
  0
LINE
  5
F3
  8
HONTAIGAIKEI
 10
5619.5566572514545
 20
17920.78844583239
 30
0.0
 11
5340.8253361523712
 21
17920.78844583239
 31
0.0
  0
LINE
  5
F4
  8
HONTAIGAIKEI
 10
5310.8253361523721
 20
17890.78844583239
 30
0.0
 11
5310.8253361523721
 21
17628.271953631262
 31
0.0
  0
ARC
  5
F5
  8
HONTAIGAIKEI
 10
5363.3956641893928
 20
17398.41525476981
 30
0.0
 40
20.0
 50
180.0
 51
270.0
  0
ARC
  5
F6
  8
HONTAIGAIKEI
 10
5592.6436215515023
 20
17398.4152547698
 30
0.0
 40
20.0
 50
270.0
 51
0.0
  0
ARC
  5
F7
  8
HONTAIGAIKEI
 10
5363.3956641893928
 20
17861.737572849732
 30
0.0
 40
20.0
 50
90.0
 51
180.0
  0
ARC
  5
F8
  8
HONTAIGAIKEI
 10
5592.6436215515023
 20
17861.737572849732
 30
0.0
 40
20.0
 50
0.0
 51
90.0
  0
ARC
  5
F9
  8
HONTAIGAIKEI
 10
5340.8253361523712
 20
17890.78844583239
 30
0.0
 40
30.0
 50
90.0
 51
180.0
  0
ARC
  5
FA
  8
HONTAIGAIKEI
 10
5619.5566572514545
 20
17890.78844583239
 30
0.0
 40
30.0
 50
0.0
 51
90.0
  0
ARC
  5
FB
  8
HONTAIGAIKEI
 10
5679.5566572514545
 20
17628.271953631262
 30
0.0
 40
30.0
 50
180.0
 51
270.0
  0
ARC
  5
FC
  8
HONTAIGAIKEI
 10
5280.8253361523712
 20
17628.271953631262
 30
0.0
 40
30.0
 50
270.0
 51
0.0
  0
LINE
  5
FD
  8
TLINE
 10
5978.7536645758992
 20
17807.97483517518
 30
0.0
 11
6148.5182582010057
 21
17807.97483517518
 31
0.0
  0
LINE
  5
FE
  8
TLINE
 10
6163.5182582010057
 20
17792.97483517518
 30
0.0
 11
6163.5182582010202
 21
17736.19511743596
 31
0.0
  0
LINE
  5
FF
  8
TLINE
 10
6148.5182582010202
 20
17721.19511743596
 30
0.0
 11
5978.7536645758846
 21
17721.19511743596
 31
0.0
  0
LINE
  5
100
  8
TLINE
 10
5963.7536645758846
 20
17736.19511743596
 30
0.0
 11
5963.7536645758992
 21
17792.97483517518
 31
0.0
  0
ARC
  5
101
  8
TLINE
 10
5978.7536645758992
 20
17792.97483517518
 30
0.0
 40
15.0
 50
90.0
 51
180.0
  0
ARC
  5
102
  8
TLINE
 10
5978.7536645758846
 20
17736.19511743596
 30
0.0
 40
15.0
 50
180.0
 51
270.0
  0
ARC
  5
103
  8
TLINE
 10
6148.5182582010057
 20
17792.97483517518
 30
0.0
 40
15.0
 50
0.0
 51
90.0
  0
ARC
  5
104
  8
TLINE
 10
6148.5182582010202
 20
17736.19511743596
 30
0.0
 40
15.0
 50
270.0
 51
0.0
  0
ARC
  5
105
  8
TLINE
 10
6001.6424676347988
 20
17764.58497630557
 30
0.0
 40
9.4373032656512805
 50
92.603016532660163
 51
267.39698346733979
  0
ARC
  5
106
  8
TLINE
 10
6121.066948930591
 20
17764.58497630557
 30
0.0
 40
14.86103562435528
 50
267.39698346733979
 51
92.603016532660163
  0
LINE
  5
107
  8
TLINE
 10
6001.2138670116728
 20
17774.012541974062
 30
0.0
 11
6120.3920263441578
 21
17779.43067801787
 31
0.0
  0
LINE
  5
108
  8
TLINE
 10
6120.3920263441578
 20
17749.73927459327
 30
0.0
 11
6001.2138670116728
 21
17755.157410637079
 31
0.0
  0
CIRCLE
  5
109
  8
TLINE
 10
6121.066948930591
 20
17764.58497630557
 30
0.0
 40
7.8711653509453754
  0
LINE
  5
10A
  8
HONTAIGAIKEI
 10
5410.4911865087524
 20
18848.271953631262
 30
0.0
 11
5358.3786945535003
 21
18953.14160473779
 31
0.0
  0
LINE
  5
10B
  8
HONTAIGAIKEI
 10
5358.3786945535003
 20
18953.14160473779
 30
0.0
 11
5668.8823541485217
 21
18924.50432476839
 31
0.0
  0
ARC
  5
10C
  8
HONTAIGAIKEI
 10
5668.8823541485217
 20
18845.323426115749
 30
0.0
 40
79.18089865264281
 50
2.134065828149438
 51
90.0
  0
LINE
  5
10D
  8
TLINE
 10
4872.2150703331172
 20
17178.455931607768
 30
0.0
 11
4872.2150703331172
 21
17034.04903141192
 31
0.0
  0
LINE
  5
10E
  8
TLINE
 10
4892.2150703331172
 20
17014.04903141192
 30
0.0
 11
4934.7265570588979
 21
17014.04903141192
 31
0.0
  0
LINE
  5
10F
  8
TLINE
 10
4954.726557058897
 20
17034.04903141192
 30
0.0
 11
4954.726557058897
 21
17178.455931607768
 31
0.0
  0
LINE
  5
110
  8
TLINE
 10
4934.7265570588979
 20
17198.455931607768
 30
0.0
 11
4892.2150703331172
 21
17198.455931607768
 31
0.0
  0
ARC
  5
111
  8
TLINE
 10
4934.7265570588979
 20
17178.455931607768
 30
0.0
 40
20.0
 50
0.0
 51
90.0
  0
ARC
  5
112
  8
TLINE
 10
4934.7265570588979
 20
17034.04903141192
 30
0.0
 40
20.0
 50
270.0
 51
0.0
  0
ARC
  5
113
  8
TLINE
 10
4892.2150703331172
 20
17178.455931607768
 30
0.0
 40
20.0
 50
90.0
 51
180.0
  0
ARC
  5
114
  8
TLINE
 10
4892.2150703331172
 20
17034.04903141192
 30
0.0
 40
20.0
 50
180.0
 51
270.0
  0
LINE
  5
115
  8
HONTAIGAIKEI
 10
5556.1919591105434
 20
18747.907697745719
 30
0.0
 11
6563.9135191857667
 21
18747.907697745719
 31
0.0
  0
ARC
  5
116
  8
HONTAIGAIKEI
 10
5556.1919591105434
 20
18617.738121136888
 30
0.0
 40
130.16957660883409
 50
90.0
 51
161.85682973543521
  0
ARC
  5
117
  8
HONTAIGAIKEI
 10
6563.9135191857667
 20
18617.738121136888
 30
0.0
 40
130.16957660883409
 50
18.14317026456472
 51
90.0
  0
LINE
  5
118
  8
HONTAIGAIKEI
 10
5069.7595254289517
 20
17964.680897017231
 30
0.0
 11
5045.487316930743
 21
17598.271953631262
 31
0.0
  0
LINE
  5
119
  8
TLINE
 10
6521.1665553824459
 20
17058.271953631262
 30
0.0
 11
6682.4135227133411
 21
17058.271953631262
 31
0.0
  0
LINE
  5
11A
  8
HONTAIGAIKEI
 10
10395.47395792852
 20
17218.271953631262
 30
0.0
 11
10920.293441540371
 21
17058.271953631262
 31
0.0
  0
LINE
  5
11B
  8
HONTAIGAIKEI
 10
10920.293441540371
 20
17058.271953631262
 30
0.0
 11
11033.20392303671
 21
16790.157487346289
 31
0.0
  0
LINE
  5
11C
  8
HONTAIGAIKEI
 10
11033.20392303671
 20
16790.157487346289
 30
0.0
 11
11072.288292003141
 21
16790.157487346289
 31
0.0
  0
LINE
  5
11D
  8
HONTAIGAIKEI
 10
11072.288292003141
 20
16790.157487346289
 30
0.0
 11
10949.724310902689
 21
17101.871008405418
 31
0.0
  0
LINE
  5
11E
  8
HONTAIGAIKEI
 10
10383.71829249845
 20
17278.271953631262
 30
0.0
 11
10949.724310902689
 21
17101.871008405418
 31
0.0
  0
LINE
  5
11F
  8
HONTAIGAIKEI
 10
7195.3413625284038
 20
17167.628936013451
 30
0.0
 11
7195.3413625284038
 21
16957.662684004499
 31
0.0
  0
LINE
  5
120
  8
HONTAIGAIKEI
 10
7205.3413625284047
 20
16947.662684004499
 30
0.0
 11
7226.5971058913156
 21
16947.662684004499
 31
0.0
  0
LINE
  5
121
  8
HONTAIGAIKEI
 10
7236.5971058913156
 20
16957.662684004499
 30
0.0
 11
7236.5971058913156
 21
17167.628936013451
 31
0.0
  0
LINE
  5
122
  8
HONTAIGAIKEI
 10
7226.5971058913156
 20
17177.62893601344
 30
0.0
 11
7205.3413625284047
 21
17177.62893601344
 31
0.0
  0
ARC
  5
123
  8
HONTAIGAIKEI
 10
7205.3413625284047
 20
17167.628936013451
 30
0.0
 40
10.0
 50
90.0
 51
180.0
  0
ARC
  5
124
  8
HONTAIGAIKEI
 10
7226.5971058913156
 20
17167.628936013451
 30
0.0
 40
10.0
 50
0.0
 51
90.0
  0
ARC
  5
125
  8
HONTAIGAIKEI
 10
7226.5971058913156
 20
16957.662684004499
 30
0.0
 40
10.0
 50
270.0
 51
0.0
  0
ARC
  5
126
  8
HONTAIGAIKEI
 10
7205.3413625284047
 20
16957.662684004499
 30
0.0
 40
10.0
 50
180.0
 51
270.0
  0
LINE
  5
127
  8
HONTAIGAIKEI
 10
7365.7927102761787
 20
16998.271953631262
 30
0.0
 11
7365.7927102761641
 21
16848.271953631262
 31
0.0
  0
LINE
  5
128
  8
HONTAIGAIKEI
 10
7425.7927102761641
 20
16652.611666094919
 30
0.0
 11
8278.559596944051
 21
16652.611666094919
 31
0.0
  0
LINE
  5
129
  8
HONTAIGAIKEI
 10
8338.559596944051
 20
16712.611666094919
 30
0.0
 11
8338.559596944051
 21
16728.271953631262
 31
0.0
  0
ARC
  5
12A
  8
HONTAIGAIKEI
 10
7425.7927102761778
 20
16998.271953631262
 30
0.0
 40
60.0
 50
90.0
 51
180.0
  0
ARC
  5
12B
  8
HONTAIGAIKEI
 10
8278.559596944051
 20
16998.271953631262
 30
0.0
 40
60.0
 50
0.0
 51
90.0
  0
ARC
  5
12C
  8
HONTAIGAIKEI
 10
8278.559596944051
 20
16712.611666094919
 30
0.0
 40
60.0
 50
270.0
 51
0.0
  0
ARC
  5
12D
  8
HONTAIGAIKEI
 10
7425.7927102761641
 20
16712.611666094919
 30
0.0
 40
60.0
 50
180.0
 51
270.0
  0
LINE
  5
12E
  8
HONTAIGAIKEI
 10
7365.7927102761641
 20
16728.271953631262
 30
0.0
 11
7365.7927102761641
 21
16712.611666094919
 31
0.0
  0
LINE
  5
12F
  8
HONTAIGAIKEI
 10
8338.559596944051
 20
16848.271953631262
 30
0.0
 11
8338.559596944051
 21
16998.271953631262
 31
0.0
  0
LINE
  5
130
  8
HONTAIGAIKEI
 10
10685.638868659949
 20
17058.271953631262
 30
0.0
 11
10920.293441540371
 21
17058.271953631262
 31
0.0
  0
LINE
  5
131
  8
HONTAIGAIKEI
 10
10008.880854666389
 20
17058.271953631262
 30
0.0
 11
10148.610005376049
 21
17058.271953631262
 31
0.0
  0
POLYLINE
  5
132
  8
TLINE
 10
7734.486678316116
 20
17142.049283105669
 30
0.0
 66
     1
 70
     8
  0
VERTEX
  8
TLINE
  5
323
 10
7734.49
 20
17142.0
 30
0.000000
  70
    32
  0
VERTEX
  8
TLINE
  5
324
 10
7734.42
 20
17143.5
 30
0.000000
  70
    32
  0
VERTEX
  8
TLINE
  5
325
 10
7734.20
 20
17145.0
 30
0.000000
  70
    32
  0
VERTEX
  8
TLINE
  5
326
 10
7733.85
 20
17146.5
 30
0.000000
  70
    32
  0
VERTEX
  8
TLINE
  5
327
 10
7733.36
 20
17148.0
 30
0.000000
  70
    32
  0
VERTEX
  8
TLINE
  5
328
 10
7732.73
 20
17149.4
 30
0.000000
  70
    32
  0
VERTEX
  8
TLINE
  5
329
 10
7731.96
 20
17150.9
 30
0.000000
  70
    32
  0
VERTEX
  8
TLINE
  5
32A
 10
7731.06
 20
17152.3
 30
0.000000
  70
    32
  0
VERTEX
  8
TLINE
  5
32B
 10
7730.02
 20
17153.7
 30
0.000000
  70
    32
  0
VERTEX
  8
TLINE
  5
32C
 10
7728.86
 20
17155.0
 30
0.000000
  70
    32
  0
VERTEX
  8
TLINE
  5
32D
 10
7727.56
 20
17156.4
 30
0.000000
  70
    32
  0
VERTEX
  8
TLINE
  5
32E
 10
7726.15
 20
17157.7
 30
0.000000
  70
    32
  0
VERTEX
  8
TLINE
  5
32F
 10
7724.61
 20
17158.9
 30
0.000000
  70
    32
  0
VERTEX
  8
TLINE
  5
330
 10
7722.95
 20
17160.2
 30
0.000000
  70
    32
  0
VERTEX
  8
TLINE
  5
331
 10
7721.18
 20
17161.3
 30
0.000000
  70
    32
  0
VERTEX
  8
TLINE
  5
332
 10
7719.30
 20
17162.5
 30
0.000000
  70
    32
  0
VERTEX
  8
TLINE
  5
333
 10
7717.32
 20
17163.5
 30
0.000000
  70
    32
  0
VERTEX
  8
TLINE
  5
334
 10
7715.23
 20
17164.6
 30
0.000000
  70
    32
  0
VERTEX
  8
TLINE
  5
335
 10
7713.05
 20
17165.5
 30
0.000000
  70
    32
  0
VERTEX
  8
TLINE
  5
336
 10
7710.78
 20
17166.5
 30
0.000000
  70
    32
  0
VERTEX
  8
TLINE
  5
337
 10
7708.43
 20
17167.3
 30
0.000000
  70
    32
  0
VERTEX
  8
TLINE
  5
338
 10
7706.00
 20
17168.1
 30
0.000000
  70
    32
  0
VERTEX
  8
TLINE
  5
339
 10
7703.50
 20
17168.9
 30
0.000000
  70
    32
  0
VERTEX
  8
TLINE
  5
33A
 10
7700.93
 20
17169.5
 30
0.000000
  70
    32
  0
VERTEX
  8
TLINE
  5
33B
 10
7698.30
 20
17170.1
 30
0.000000
  70
    32
  0
VERTEX
  8
TLINE
  5
33C
 10
7695.61
 20
17170.7
 30
0.000000
  70
    32
  0
VERTEX
  8
TLINE
  5
33D
 10
7692.88
 20
17171.1
 30
0.000000
  70
    32
  0
VERTEX
  8
TLINE
  5
33E
 10
7690.11
 20
17171.5
 30
0.000000
  70
    32
  0
VERTEX
  8
TLINE
  5
33F
 10
7687.30
 20
17171.9
 30
0.000000
  70
    32
  0
VERTEX
  8
TLINE
  5
340
 10
7684.46
 20
17172.1
 30
0.000000
  70
    32
  0
VERTEX
  8
TLINE
  5
341
 10
7681.61
 20
17172.3
 30
0.000000
  70
    32
  0
VERTEX
  8
TLINE
  5
342
 10
7678.74
 20
17172.4
 30
0.000000
  70
    32
  0
VERTEX
  8
TLINE
  5
343
 10
7675.86
 20
17172.4
 30
0.000000
  70
    32
  0
VERTEX
  8
TLINE
  5
344
 10
7672.98
 20
17172.4
 30
0.000000
  70
    32
  0
VERTEX
  8
TLINE
  5
345
 10
7670.11
 20
17172.3
 30
0.000000
  70
    32
  0
VERTEX
  8
TLINE
  5
346
 10
7667.26
 20
17172.1
 30
0.000000
  70
    32
  0
VERTEX
  8
TLINE
  5
347
 10
7664.42
 20
17171.9
 30
0.000000
  70
    32
  0
VERTEX
  8
TLINE
  5
348
 10
7661.62
 20
17171.5
 30
0.000000
  70
    32
  0
VERTEX
  8
TLINE
  5
349
 10
7658.84
 20
17171.1
 30
0.000000
  70
    32
  0
VERTEX
  8
TLINE
  5
34A
 10
7656.11
 20
17170.7
 30
0.000000
  70
    32
  0
VERTEX
  8
TLINE
  5
34B
 10
7653.42
 20
17170.1
 30
0.000000
  70
    32
  0
VERTEX
  8
TLINE
  5
34C
 10
7650.79
 20
17169.5
 30
0.000000
  70
    32
  0
VERTEX
  8
TLINE
  5
34D
 10
7648.22
 20
17168.9
 30
0.000000
  70
    32
  0
VERTEX
  8
TLINE
  5
34E
 10
7645.72
 20
17168.1
 30
0.000000
  70
    32
  0
VERTEX
  8
TLINE
  5
34F
 10
7643.29
 20
17167.3
 30
0.000000
  70
    32
  0
VERTEX
  8
TLINE
  5
350
 10
7640.94
 20
17166.5
 30
0.000000
  70
    32
  0
VERTEX
  8
TLINE
  5
351
 10
7638.67
 20
17165.5
 30
0.000000
  70
    32
  0
VERTEX
  8
TLINE
  5
352
 10
7636.49
 20
17164.6
 30
0.000000
  70
    32
  0
VERTEX
  8
TLINE
  5
353
 10
7634.40
 20
17163.5
 30
0.000000
  70
    32
  0
VERTEX
  8
TLINE
  5
354
 10
7632.42
 20
17162.5
 30
0.000000
  70
    32
  0
VERTEX
  8
TLINE
  5
355
 10
7630.54
 20
17161.3
 30
0.000000
  70
    32
  0
VERTEX
  8
TLINE
  5
356
 10
7628.77
 20
17160.2
 30
0.000000
  70
    32
  0
VERTEX
  8
TLINE
  5
357
 10
7627.11
 20
17158.9
 30
0.000000
  70
    32
  0
VERTEX
  8
TLINE
  5
358
 10
7625.57
 20
17157.7
 30
0.000000
  70
    32
  0
VERTEX
  8
TLINE
  5
359
 10
7624.16
 20
17156.4
 30
0.000000
  70
    32
  0
VERTEX
  8
TLINE
  5
35A
 10
7622.86
 20
17155.0
 30
0.000000
  70
    32
  0
VERTEX
  8
TLINE
  5
35B
 10
7621.70
 20
17153.7
 30
0.000000
  70
    32
  0
VERTEX
  8
TLINE
  5
35C
 10
7620.66
 20
17152.3
 30
0.000000
  70
    32
  0
VERTEX
  8
TLINE
  5
35D
 10
7619.76
 20
17150.9
 30
0.000000
  70
    32
  0
VERTEX
  8
TLINE
  5
35E
 10
7618.99
 20
17149.4
 30
0.000000
  70
    32
  0
VERTEX
  8
TLINE
  5
35F
 10
7618.36
 20
17148.0
 30
0.000000
  70
    32
  0
VERTEX
  8
TLINE
  5
360
 10
7617.87
 20
17146.5
 30
0.000000
  70
    32
  0
VERTEX
  8
TLINE
  5
361
 10
7617.52
 20
17145.0
 30
0.000000
  70
    32
  0
VERTEX
  8
TLINE
  5
362
 10
7617.30
 20
17143.5
 30
0.000000
  70
    32
  0
VERTEX
  8
TLINE
  5
363
 10
7617.23
 20
17142.0
 30
0.000000
  70
    32
  0
VERTEX
  8
TLINE
  5
364
 10
7617.30
 20
17140.6
 30
0.000000
  70
    32
  0
VERTEX
  8
TLINE
  5
365
 10
7617.52
 20
17139.1
 30
0.000000
  70
    32
  0
VERTEX
  8
TLINE
  5
366
 10
7617.87
 20
17137.6
 30
0.000000
  70
    32
  0
VERTEX
  8
TLINE
  5
367
 10
7618.36
 20
17136.1
 30
0.000000
  70
    32
  0
VERTEX
  8
TLINE
  5
368
 10
7618.99
 20
17134.7
 30
0.000000
  70
    32
  0
VERTEX
  8
TLINE
  5
369
 10
7619.76
 20
17133.2
 30
0.000000
  70
    32
  0
VERTEX
  8
TLINE
  5
36A
 10
7620.66
 20
17131.8
 30
0.000000
  70
    32
  0
VERTEX
  8
TLINE
  5
36B
 10
7621.70
 20
17130.4
 30
0.000000
  70
    32
  0
VERTEX
  8
TLINE
  5
36C
 10
7622.86
 20
17129.1
 30
0.000000
  70
    32
  0
VERTEX
  8
TLINE
  5
36D
 10
7624.16
 20
17127.7
 30
0.000000
  70
    32
  0
VERTEX
  8
TLINE
  5
36E
 10
7625.57
 20
17126.4
 30
0.000000
  70
    32
  0
VERTEX
  8
TLINE
  5
36F
 10
7627.11
 20
17125.2
 30
0.000000
  70
    32
  0
VERTEX
  8
TLINE
  5
370
 10
7628.77
 20
17123.9
 30
0.000000
  70
    32
  0
VERTEX
  8
TLINE
  5
371
 10
7630.54
 20
17122.8
 30
0.000000
  70
    32
  0
VERTEX
  8
TLINE
  5
372
 10
7632.42
 20
17121.6
 30
0.000000
  70
    32
  0
VERTEX
  8
TLINE
  5
373
 10
7634.40
 20
17120.6
 30
0.000000
  70
    32
  0
VERTEX
  8
TLINE
  5
374
 10
7636.49
 20
17119.5
 30
0.000000
  70
    32
  0
VERTEX
  8
TLINE
  5
375
 10
7638.67
 20
17118.6
 30
0.000000
  70
    32
  0
VERTEX
  8
TLINE
  5
376
 10
7640.94
 20
17117.6
 30
0.000000
  70
    32
  0
VERTEX
  8
TLINE
  5
377
 10
7643.29
 20
17116.8
 30
0.000000
  70
    32
  0
VERTEX
  8
TLINE
  5
378
 10
7645.72
 20
17116.0
 30
0.000000
  70
    32
  0
VERTEX
  8
TLINE
  5
379
 10
7648.22
 20
17115.2
 30
0.000000
  70
    32
  0
VERTEX
  8
TLINE
  5
37A
 10
7650.79
 20
17114.6
 30
0.000000
  70
    32
  0
VERTEX
  8
TLINE
  5
37B
 10
7653.42
 20
17114.0
 30
0.000000
  70
    32
  0
VERTEX
  8
TLINE
  5
37C
 10
7656.11
 20
17113.4
 30
0.000000
  70
    32
  0
VERTEX
  8
TLINE
  5
37D
 10
7658.84
 20
17113.0
 30
0.000000
  70
    32
  0
VERTEX
  8
TLINE
  5
37E
 10
7661.62
 20
17112.6
 30
0.000000
  70
    32
  0
VERTEX
  8
TLINE
  5
37F
 10
7664.42
 20
17112.2
 30
0.000000
  70
    32
  0
VERTEX
  8
TLINE
  5
380
 10
7667.26
 20
17112.0
 30
0.000000
  70
    32
  0
VERTEX
  8
TLINE
  5
381
 10
7670.11
 20
17111.8
 30
0.000000
  70
    32
  0
VERTEX
  8
TLINE
  5
382
 10
7672.98
 20
17111.7
 30
0.000000
  70
    32
  0
VERTEX
  8
TLINE
  5
383
 10
7675.86
 20
17111.7
 30
0.000000
  70
    32
  0
VERTEX
  8
TLINE
  5
384
 10
7678.74
 20
17111.7
 30
0.000000
  70
    32
  0
VERTEX
  8
TLINE
  5
385
 10
7681.61
 20
17111.8
 30
0.000000
  70
    32
  0
VERTEX
  8
TLINE
  5
386
 10
7684.46
 20
17112.0
 30
0.000000
  70
    32
  0
VERTEX
  8
TLINE
  5
387
 10
7687.30
 20
17112.2
 30
0.000000
  70
    32
  0
VERTEX
  8
TLINE
  5
388
 10
7690.11
 20
17112.6
 30
0.000000
  70
    32
  0
VERTEX
  8
TLINE
  5
389
 10
7692.88
 20
17113.0
 30
0.000000
  70
    32
  0
VERTEX
  8
TLINE
  5
38A
 10
7695.61
 20
17113.4
 30
0.000000
  70
    32
  0
VERTEX
  8
TLINE
  5
38B
 10
7698.30
 20
17114.0
 30
0.000000
  70
    32
  0
VERTEX
  8
TLINE
  5
38C
 10
7700.93
 20
17114.6
 30
0.000000
  70
    32
  0
VERTEX
  8
TLINE
  5
38D
 10
7703.50
 20
17115.2
 30
0.000000
  70
    32
  0
VERTEX
  8
TLINE
  5
38E
 10
7706.00
 20
17116.0
 30
0.000000
  70
    32
  0
VERTEX
  8
TLINE
  5
38F
 10
7708.43
 20
17116.8
 30
0.000000
  70
    32
  0
VERTEX
  8
TLINE
  5
390
 10
7710.78
 20
17117.6
 30
0.000000
  70
    32
  0
VERTEX
  8
TLINE
  5
391
 10
7713.05
 20
17118.6
 30
0.000000
  70
    32
  0
VERTEX
  8
TLINE
  5
392
 10
7715.23
 20
17119.5
 30
0.000000
  70
    32
  0
VERTEX
  8
TLINE
  5
393
 10
7717.32
 20
17120.6
 30
0.000000
  70
    32
  0
VERTEX
  8
TLINE
  5
394
 10
7719.30
 20
17121.6
 30
0.000000
  70
    32
  0
VERTEX
  8
TLINE
  5
395
 10
7721.18
 20
17122.8
 30
0.000000
  70
    32
  0
VERTEX
  8
TLINE
  5
396
 10
7722.95
 20
17123.9
 30
0.000000
  70
    32
  0
VERTEX
  8
TLINE
  5
397
 10
7724.61
 20
17125.2
 30
0.000000
  70
    32
  0
VERTEX
  8
TLINE
  5
398
 10
7726.15
 20
17126.4
 30
0.000000
  70
    32
  0
VERTEX
  8
TLINE
  5
399
 10
7727.56
 20
17127.7
 30
0.000000
  70
    32
  0
VERTEX
  8
TLINE
  5
39A
 10
7728.86
 20
17129.1
 30
0.000000
  70
    32
  0
VERTEX
  8
TLINE
  5
39B
 10
7730.02
 20
17130.4
 30
0.000000
  70
    32
  0
VERTEX
  8
TLINE
  5
39C
 10
7731.06
 20
17131.8
 30
0.000000
  70
    32
  0
VERTEX
  8
TLINE
  5
39D
 10
7731.96
 20
17133.2
 30
0.000000
  70
    32
  0
VERTEX
  8
TLINE
  5
39E
 10
7732.73
 20
17134.7
 30
0.000000
  70
    32
  0
VERTEX
  8
TLINE
  5
39F
 10
7733.36
 20
17136.1
 30
0.000000
  70
    32
  0
VERTEX
  8
TLINE
  5
3A0
 10
7733.85
 20
17137.6
 30
0.000000
  70
    32
  0
VERTEX
  8
TLINE
  5
3A1
 10
7734.20
 20
17139.1
 30
0.000000
  70
    32
  0
VERTEX
  8
TLINE
  5
3A2
 10
7734.42
 20
17140.6
 30
0.000000
  70
    32
  0
VERTEX
  8
TLINE
  5
3A3
 10
7734.49
 20
17142.0
 30
0.000000
  70
    32
  0
SEQEND
  8
TLINE
  5
3A4
  0
POLYLINE
  5
133
  8
TLINE
 10
7617.2335302868196
 20
17130.11707191652
 30
0.0
 66
     1
 70
     8
  0
VERTEX
  8
TLINE
  5
3A5
 10
7617.23
 20
17130.1
 30
0.000000
  70
    32
  0
VERTEX
  8
TLINE
  5
3A6
 10
7617.25
 20
17129.4
 30
0.000000
  70
    32
  0
VERTEX
  8
TLINE
  5
3A7
 10
7617.30
 20
17128.6
 30
0.000000
  70
    32
  0
VERTEX
  8
TLINE
  5
3A8
 10
7617.39
 20
17127.9
 30
0.000000
  70
    32
  0
VERTEX
  8
TLINE
  5
3A9
 10
7617.52
 20
17127.1
 30
0.000000
  70
    32
  0
VERTEX
  8
TLINE
  5
3AA
 10
7617.67
 20
17126.4
 30
0.000000
  70
    32
  0
VERTEX
  8
TLINE
  5
3AB
 10
7617.87
 20
17125.7
 30
0.000000
  70
    32
  0
VERTEX
  8
TLINE
  5
3AC
 10
7618.10
 20
17124.9
 30
0.000000
  70
    32
  0
VERTEX
  8
TLINE
  5
3AD
 10
7618.36
 20
17124.2
 30
0.000000
  70
    32
  0
VERTEX
  8
TLINE
  5
3AE
 10
7618.66
 20
17123.5
 30
0.000000
  70
    32
  0
VERTEX
  8
TLINE
  5
3AF
 10
7618.99
 20
17122.7
 30
0.000000
  70
    32
  0
VERTEX
  8
TLINE
  5
3B0
 10
7619.36
 20
17122.0
 30
0.000000
  70
    32
  0
VERTEX
  8
TLINE
  5
3B1
 10
7619.76
 20
17121.3
 30
0.000000
  70
    32
  0
VERTEX
  8
TLINE
  5
3B2
 10
7620.19
 20
17120.6
 30
0.000000
  70
    32
  0
VERTEX
  8
TLINE
  5
3B3
 10
7620.66
 20
17119.9
 30
0.000000
  70
    32
  0
VERTEX
  8
TLINE
  5
3B4
 10
7621.16
 20
17119.2
 30
0.000000
  70
    32
  0
VERTEX
  8
TLINE
  5
3B5
 10
7621.70
 20
17118.5
 30
0.000000
  70
    32
  0
VERTEX
  8
TLINE
  5
3B6
 10
7622.26
 20
17117.8
 30
0.000000
  70
    32
  0
VERTEX
  8
TLINE
  5
3B7
 10
7622.86
 20
17117.1
 30
0.000000
  70
    32
  0
VERTEX
  8
TLINE
  5
3B8
 10
7623.49
 20
17116.4
 30
0.000000
  70
    32
  0
VERTEX
  8
TLINE
  5
3B9
 10
7624.16
 20
17115.8
 30
0.000000
  70
    32
  0
VERTEX
  8
TLINE
  5
3BA
 10
7624.85
 20
17115.1
 30
0.000000
  70
    32
  0
VERTEX
  8
TLINE
  5
3BB
 10
7625.57
 20
17114.5
 30
0.000000
  70
    32
  0
VERTEX
  8
TLINE
  5
3BC
 10
7626.33
 20
17113.9
 30
0.000000
  70
    32
  0
VERTEX
  8
TLINE
  5
3BD
 10
7627.11
 20
17113.2
 30
0.000000
  70
    32
  0
VERTEX
  8
TLINE
  5
3BE
 10
7627.93
 20
17112.6
 30
0.000000
  70
    32
  0
VERTEX
  8
TLINE
  5
3BF
 10
7628.77
 20
17112.0
 30
0.000000
  70
    32
  0
VERTEX
  8
TLINE
  5
3C0
 10
7629.64
 20
17111.4
 30
0.000000
  70
    32
  0
VERTEX
  8
TLINE
  5
3C1
 10
7630.54
 20
17110.8
 30
0.000000
  70
    32
  0
VERTEX
  8
TLINE
  5
3C2
 10
7631.47
 20
17110.3
 30
0.000000
  70
    32
  0
VERTEX
  8
TLINE
  5
3C3
 10
7632.42
 20
17109.7
 30
0.000000
  70
    32
  0
VERTEX
  8
TLINE
  5
3C4
 10
7633.40
 20
17109.2
 30
0.000000
  70
    32
  0
VERTEX
  8
TLINE
  5
3C5
 10
7634.40
 20
17108.6
 30
0.000000
  70
    32
  0
VERTEX
  8
TLINE
  5
3C6
 10
7635.43
 20
17108.1
 30
0.000000
  70
    32
  0
VERTEX
  8
TLINE
  5
3C7
 10
7636.49
 20
17107.6
 30
0.000000
  70
    32
  0
VERTEX
  8
TLINE
  5
3C8
 10
7637.57
 20
17107.1
 30
0.000000
  70
    32
  0
VERTEX
  8
TLINE
  5
3C9
 10
7638.67
 20
17106.6
 30
0.000000
  70
    32
  0
VERTEX
  8
TLINE
  5
3CA
 10
7639.79
 20
17106.2
 30
0.000000
  70
    32
  0
VERTEX
  8
TLINE
  5
3CB
 10
7640.94
 20
17105.7
 30
0.000000
  70
    32
  0
VERTEX
  8
TLINE
  5
3CC
 10
7642.10
 20
17105.3
 30
0.000000
  70
    32
  0
VERTEX
  8
TLINE
  5
3CD
 10
7643.29
 20
17104.8
 30
0.000000
  70
    32
  0
VERTEX
  8
TLINE
  5
3CE
 10
7644.50
 20
17104.4
 30
0.000000
  70
    32
  0
VERTEX
  8
TLINE
  5
3CF
 10
7645.72
 20
17104.0
 30
0.000000
  70
    32
  0
VERTEX
  8
TLINE
  5
3D0
 10
7646.96
 20
17103.7
 30
0.000000
  70
    32
  0
VERTEX
  8
TLINE
  5
3D1
 10
7648.22
 20
17103.3
 30
0.000000
  70
    32
  0
VERTEX
  8
TLINE
  5
3D2
 10
7649.50
 20
17103.0
 30
0.000000
  70
    32
  0
VERTEX
  8
TLINE
  5
3D3
 10
7650.79
 20
17102.6
 30
0.000000
  70
    32
  0
VERTEX
  8
TLINE
  5
3D4
 10
7652.10
 20
17102.3
 30
0.000000
  70
    32
  0
VERTEX
  8
TLINE
  5
3D5
 10
7653.42
 20
17102.0
 30
0.000000
  70
    32
  0
VERTEX
  8
TLINE
  5
3D6
 10
7654.76
 20
17101.8
 30
0.000000
  70
    32
  0
VERTEX
  8
TLINE
  5
3D7
 10
7656.11
 20
17101.5
 30
0.000000
  70
    32
  0
VERTEX
  8
TLINE
  5
3D8
 10
7657.47
 20
17101.3
 30
0.000000
  70
    32
  0
VERTEX
  8
TLINE
  5
3D9
 10
7658.84
 20
17101.0
 30
0.000000
  70
    32
  0
VERTEX
  8
TLINE
  5
3DA
 10
7660.22
 20
17100.8
 30
0.000000
  70
    32
  0
VERTEX
  8
TLINE
  5
3DB
 10
7661.62
 20
17100.6
 30
0.000000
  70
    32
  0
VERTEX
  8
TLINE
  5
3DC
 10
7663.01
 20
17100.5
 30
0.000000
  70
    32
  0
VERTEX
  8
TLINE
  5
3DD
 10
7664.42
 20
17100.3
 30
0.000000
  70
    32
  0
VERTEX
  8
TLINE
  5
3DE
 10
7665.84
 20
17100.2
 30
0.000000
  70
    32
  0
VERTEX
  8
TLINE
  5
3DF
 10
7667.26
 20
17100.0
 30
0.000000
  70
    32
  0
VERTEX
  8
TLINE
  5
3E0
 10
7668.68
 20
17099.9
 30
0.000000
  70
    32
  0
VERTEX
  8
TLINE
  5
3E1
 10
7670.11
 20
17099.9
 30
0.000000
  70
    32
  0
VERTEX
  8
TLINE
  5
3E2
 10
7671.55
 20
17099.8
 30
0.000000
  70
    32
  0
VERTEX
  8
TLINE
  5
3E3
 10
7672.98
 20
17099.8
 30
0.000000
  70
    32
  0
VERTEX
  8
TLINE
  5
3E4
 10
7674.42
 20
17099.7
 30
0.000000
  70
    32
  0
VERTEX
  8
TLINE
  5
3E5
 10
7675.86
 20
17099.7
 30
0.000000
  70
    32
  0
VERTEX
  8
TLINE
  5
3E6
 10
7677.30
 20
17099.7
 30
0.000000
  70
    32
  0
VERTEX
  8
TLINE
  5
3E7
 10
7678.74
 20
17099.8
 30
0.000000
  70
    32
  0
VERTEX
  8
TLINE
  5
3E8
 10
7680.17
 20
17099.8
 30
0.000000
  70
    32
  0
VERTEX
  8
TLINE
  5
3E9
 10
7681.61
 20
17099.9
 30
0.000000
  70
    32
  0
VERTEX
  8
TLINE
  5
3EA
 10
7683.04
 20
17099.9
 30
0.000000
  70
    32
  0
VERTEX
  8
TLINE
  5
3EB
 10
7684.46
 20
17100.0
 30
0.000000
  70
    32
  0
VERTEX
  8
TLINE
  5
3EC
 10
7685.88
 20
17100.2
 30
0.000000
  70
    32
  0
VERTEX
  8
TLINE
  5
3ED
 10
7687.30
 20
17100.3
 30
0.000000
  70
    32
  0
VERTEX
  8
TLINE
  5
3EE
 10
7688.71
 20
17100.5
 30
0.000000
  70
    32
  0
VERTEX
  8
TLINE
  5
3EF
 10
7690.11
 20
17100.6
 30
0.000000
  70
    32
  0
VERTEX
  8
TLINE
  5
3F0
 10
7691.50
 20
17100.8
 30
0.000000
  70
    32
  0
VERTEX
  8
TLINE
  5
3F1
 10
7692.88
 20
17101.0
 30
0.000000
  70
    32
  0
VERTEX
  8
TLINE
  5
3F2
 10
7694.25
 20
17101.3
 30
0.000000
  70
    32
  0
VERTEX
  8
TLINE
  5
3F3
 10
7695.61
 20
17101.5
 30
0.000000
  70
    32
  0
VERTEX
  8
TLINE
  5
3F4
 10
7696.96
 20
17101.8
 30
0.000000
  70
    32
  0
VERTEX
  8
TLINE
  5
3F5
 10
7698.30
 20
17102.0
 30
0.000000
  70
    32
  0
VERTEX
  8
TLINE
  5
3F6
 10
7699.62
 20
17102.3
 30
0.000000
  70
    32
  0
VERTEX
  8
TLINE
  5
3F7
 10
7700.93
 20
17102.6
 30
0.000000
  70
    32
  0
VERTEX
  8
TLINE
  5
3F8
 10
7702.22
 20
17103.0
 30
0.000000
  70
    32
  0
VERTEX
  8
TLINE
  5
3F9
 10
7703.50
 20
17103.3
 30
0.000000
  70
    32
  0
VERTEX
  8
TLINE
  5
3FA
 10
7704.76
 20
17103.7
 30
0.000000
  70
    32
  0
VERTEX
  8
TLINE
  5
3FB
 10
7706.00
 20
17104.0
 30
0.000000
  70
    32
  0
VERTEX
  8
TLINE
  5
3FC
 10
7707.23
 20
17104.4
 30
0.000000
  70
    32
  0
VERTEX
  8
TLINE
  5
3FD
 10
7708.43
 20
17104.8
 30
0.000000
  70
    32
  0
VERTEX
  8
TLINE
  5
3FE
 10
7709.62
 20
17105.3
 30
0.000000
  70
    32
  0
VERTEX
  8
TLINE
  5
3FF
 10
7710.78
 20
17105.7
 30
0.000000
  70
    32
  0
VERTEX
  8
TLINE
  5
400
 10
7711.93
 20
17106.2
 30
0.000000
  70
    32
  0
VERTEX
  8
TLINE
  5
401
 10
7713.05
 20
17106.6
 30
0.000000
  70
    32
  0
VERTEX
  8
TLINE
  5
402
 10
7714.15
 20
17107.1
 30
0.000000
  70
    32
  0
VERTEX
  8
TLINE
  5
403
 10
7715.23
 20
17107.6
 30
0.000000
  70
    32
  0
VERTEX
  8
TLINE
  5
404
 10
7716.29
 20
17108.1
 30
0.000000
  70
    32
  0
VERTEX
  8
TLINE
  5
405
 10
7717.32
 20
17108.6
 30
0.000000
  70
    32
  0
VERTEX
  8
TLINE
  5
406
 10
7718.32
 20
17109.2
 30
0.000000
  70
    32
  0
VERTEX
  8
TLINE
  5
407
 10
7719.30
 20
17109.7
 30
0.000000
  70
    32
  0
VERTEX
  8
TLINE
  5
408
 10
7720.25
 20
17110.3
 30
0.000000
  70
    32
  0
VERTEX
  8
TLINE
  5
409
 10
7721.18
 20
17110.8
 30
0.000000
  70
    32
  0
VERTEX
  8
TLINE
  5
40A
 10
7722.08
 20
17111.4
 30
0.000000
  70
    32
  0
VERTEX
  8
TLINE
  5
40B
 10
7722.95
 20
17112.0
 30
0.000000
  70
    32
  0
VERTEX
  8
TLINE
  5
40C
 10
7723.79
 20
17112.6
 30
0.000000
  70
    32
  0
VERTEX
  8
TLINE
  5
40D
 10
7724.61
 20
17113.2
 30
0.000000
  70
    32
  0
VERTEX
  8
TLINE
  5
40E
 10
7725.39
 20
17113.9
 30
0.000000
  70
    32
  0
VERTEX
  8
TLINE
  5
40F
 10
7726.15
 20
17114.5
 30
0.000000
  70
    32
  0
VERTEX
  8
TLINE
  5
410
 10
7726.87
 20
17115.1
 30
0.000000
  70
    32
  0
VERTEX
  8
TLINE
  5
411
 10
7727.56
 20
17115.8
 30
0.000000
  70
    32
  0
VERTEX
  8
TLINE
  5
412
 10
7728.23
 20
17116.4
 30
0.000000
  70
    32
  0
VERTEX
  8
TLINE
  5
413
 10
7728.86
 20
17117.1
 30
0.000000
  70
    32
  0
VERTEX
  8
TLINE
  5
414
 10
7729.46
 20
17117.8
 30
0.000000
  70
    32
  0
VERTEX
  8
TLINE
  5
415
 10
7730.02
 20
17118.5
 30
0.000000
  70
    32
  0
VERTEX
  8
TLINE
  5
416
 10
7730.56
 20
17119.2
 30
0.000000
  70
    32
  0
VERTEX
  8
TLINE
  5
417
 10
7731.06
 20
17119.9
 30
0.000000
  70
    32
  0
VERTEX
  8
TLINE
  5
418
 10
7731.53
 20
17120.6
 30
0.000000
  70
    32
  0
VERTEX
  8
TLINE
  5
419
 10
7731.96
 20
17121.3
 30
0.000000
  70
    32
  0
VERTEX
  8
TLINE
  5
41A
 10
7732.36
 20
17122.0
 30
0.000000
  70
    32
  0
VERTEX
  8
TLINE
  5
41B
 10
7732.73
 20
17122.7
 30
0.000000
  70
    32
  0
VERTEX
  8
TLINE
  5
41C
 10
7733.06
 20
17123.5
 30
0.000000
  70
    32
  0
VERTEX
  8
TLINE
  5
41D
 10
7733.36
 20
17124.2
 30
0.000000
  70
    32
  0
VERTEX
  8
TLINE
  5
41E
 10
7733.62
 20
17124.9
 30
0.000000
  70
    32
  0
VERTEX
  8
TLINE
  5
41F
 10
7733.85
 20
17125.7
 30
0.000000
  70
    32
  0
VERTEX
  8
TLINE
  5
420
 10
7734.05
 20
17126.4
 30
0.000000
  70
    32
  0
VERTEX
  8
TLINE
  5
421
 10
7734.20
 20
17127.1
 30
0.000000
  70
    32
  0
VERTEX
  8
TLINE
  5
422
 10
7734.33
 20
17127.9
 30
0.000000
  70
    32
  0
VERTEX
  8
TLINE
  5
423
 10
7734.42
 20
17128.6
 30
0.000000
  70
    32
  0
VERTEX
  8
TLINE
  5
424
 10
7734.47
 20
17129.4
 30
0.000000
  70
    32
  0
VERTEX
  8
TLINE
  5
425
 10
7734.49
 20
17130.1
 30
0.000000
  70
    32
  0
SEQEND
  8
TLINE
  5
426
  0
LINE
  5
134
  8
TLINE
 10
7617.233530286835
 20
17142.049283105669
 30
0.0
 11
7617.233530286835
 21
17130.11707191652
 31
0.0
  0
LINE
  5
135
  8
TLINE
 10
7734.4866783161297
 20
17142.049283105669
 30
0.0
 11
7734.4866783161297
 21
17130.11707191652
 31
0.0
  0
POLYLINE
  5
136
  8
HONTAIGAIKEI
 10
7641.621601453975
 20
17058.271953631254
 30
0.0
 66
     1
 70
     8
  0
VERTEX
  8
HONTAIGAIKEI
  5
427
 10
7641.62
 20
17058.3
 30
0.000000
  70
    32
  0
VERTEX
  8
HONTAIGAIKEI
  5
428
 10
7641.63
 20
17057.8
 30
0.000000
  70
    32
  0
VERTEX
  8
HONTAIGAIKEI
  5
429
 10
7641.66
 20
17057.3
 30
0.000000
  70
    32
  0
VERTEX
  8
HONTAIGAIKEI
  5
42A
 10
7641.71
 20
17056.9
 30
0.000000
  70
    32
  0
VERTEX
  8
HONTAIGAIKEI
  5
42B
 10
7641.78
 20
17056.4
 30
0.000000
  70
    32
  0
VERTEX
  8
HONTAIGAIKEI
  5
42C
 10
7641.87
 20
17055.9
 30
0.000000
  70
    32
  0
VERTEX
  8
HONTAIGAIKEI
  5
42D
 10
7641.99
 20
17055.5
 30
0.000000
  70
    32
  0
VERTEX
  8
HONTAIGAIKEI
  5
42E
 10
7642.12
 20
17055.0
 30
0.000000
  70
    32
  0
VERTEX
  8
HONTAIGAIKEI
  5
42F
 10
7642.28
 20
17054.6
 30
0.000000
  70
    32
  0
VERTEX
  8
HONTAIGAIKEI
  5
430
 10
7642.45
 20
17054.1
 30
0.000000
  70
    32
  0
VERTEX
  8
HONTAIGAIKEI
  5
431
 10
7642.65
 20
17053.6
 30
0.000000
  70
    32
  0
VERTEX
  8
HONTAIGAIKEI
  5
432
 10
7642.87
 20
17053.2
 30
0.000000
  70
    32
  0
VERTEX
  8
HONTAIGAIKEI
  5
433
 10
7643.11
 20
17052.7
 30
0.000000
  70
    32
  0
VERTEX
  8
HONTAIGAIKEI
  5
434
 10
7643.37
 20
17052.3
 30
0.000000
  70
    32
  0
VERTEX
  8
HONTAIGAIKEI
  5
435
 10
7643.65
 20
17051.9
 30
0.000000
  70
    32
  0
VERTEX
  8
HONTAIGAIKEI
  5
436
 10
7643.95
 20
17051.4
 30
0.000000
  70
    32
  0
VERTEX
  8
HONTAIGAIKEI
  5
437
 10
7644.27
 20
17051.0
 30
0.000000
  70
    32
  0
VERTEX
  8
HONTAIGAIKEI
  5
438
 10
7644.61
 20
17050.5
 30
0.000000
  70
    32
  0
VERTEX
  8
HONTAIGAIKEI
  5
439
 10
7644.97
 20
17050.1
 30
0.000000
  70
    32
  0
VERTEX
  8
HONTAIGAIKEI
  5
43A
 10
7645.35
 20
17049.7
 30
0.000000
  70
    32
  0
VERTEX
  8
HONTAIGAIKEI
  5
43B
 10
7645.74
 20
17049.3
 30
0.000000
  70
    32
  0
VERTEX
  8
HONTAIGAIKEI
  5
43C
 10
7646.16
 20
17048.9
 30
0.000000
  70
    32
  0
VERTEX
  8
HONTAIGAIKEI
  5
43D
 10
7646.60
 20
17048.5
 30
0.000000
  70
    32
  0
VERTEX
  8
HONTAIGAIKEI
  5
43E
 10
7647.05
 20
17048.1
 30
0.000000
  70
    32
  0
VERTEX
  8
HONTAIGAIKEI
  5
43F
 10
7647.52
 20
17047.7
 30
0.000000
  70
    32
  0
VERTEX
  8
HONTAIGAIKEI
  5
440
 10
7648.01
 20
17047.3
 30
0.000000
  70
    32
  0
VERTEX
  8
HONTAIGAIKEI
  5
441
 10
7648.52
 20
17046.9
 30
0.000000
  70
    32
  0
VERTEX
  8
HONTAIGAIKEI
  5
442
 10
7649.04
 20
17046.5
 30
0.000000
  70
    32
  0
VERTEX
  8
HONTAIGAIKEI
  5
443
 10
7649.58
 20
17046.2
 30
0.000000
  70
    32
  0
VERTEX
  8
HONTAIGAIKEI
  5
444
 10
7650.14
 20
17045.8
 30
0.000000
  70
    32
  0
VERTEX
  8
HONTAIGAIKEI
  5
445
 10
7650.71
 20
17045.5
 30
0.000000
  70
    32
  0
VERTEX
  8
HONTAIGAIKEI
  5
446
 10
7651.30
 20
17045.1
 30
0.000000
  70
    32
  0
VERTEX
  8
HONTAIGAIKEI
  5
447
 10
7651.91
 20
17044.8
 30
0.000000
  70
    32
  0
VERTEX
  8
HONTAIGAIKEI
  5
448
 10
7652.53
 20
17044.5
 30
0.000000
  70
    32
  0
VERTEX
  8
HONTAIGAIKEI
  5
449
 10
7653.16
 20
17044.1
 30
0.000000
  70
    32
  0
VERTEX
  8
HONTAIGAIKEI
  5
44A
 10
7653.81
 20
17043.8
 30
0.000000
  70
    32
  0
VERTEX
  8
HONTAIGAIKEI
  5
44B
 10
7654.48
 20
17043.5
 30
0.000000
  70
    32
  0
VERTEX
  8
HONTAIGAIKEI
  5
44C
 10
7655.15
 20
17043.2
 30
0.000000
  70
    32
  0
VERTEX
  8
HONTAIGAIKEI
  5
44D
 10
7655.84
 20
17043.0
 30
0.000000
  70
    32
  0
VERTEX
  8
HONTAIGAIKEI
  5
44E
 10
7656.55
 20
17042.7
 30
0.000000
  70
    32
  0
VERTEX
  8
HONTAIGAIKEI
  5
44F
 10
7657.26
 20
17042.4
 30
0.000000
  70
    32
  0
VERTEX
  8
HONTAIGAIKEI
  5
450
 10
7657.99
 20
17042.2
 30
0.000000
  70
    32
  0
VERTEX
  8
HONTAIGAIKEI
  5
451
 10
7658.73
 20
17041.9
 30
0.000000
  70
    32
  0
VERTEX
  8
HONTAIGAIKEI
  5
452
 10
7659.48
 20
17041.7
 30
0.000000
  70
    32
  0
VERTEX
  8
HONTAIGAIKEI
  5
453
 10
7660.24
 20
17041.5
 30
0.000000
  70
    32
  0
VERTEX
  8
HONTAIGAIKEI
  5
454
 10
7661.01
 20
17041.2
 30
0.000000
  70
    32
  0
VERTEX
  8
HONTAIGAIKEI
  5
455
 10
7661.79
 20
17041.0
 30
0.000000
  70
    32
  0
VERTEX
  8
HONTAIGAIKEI
  5
456
 10
7662.57
 20
17040.8
 30
0.000000
  70
    32
  0
VERTEX
  8
HONTAIGAIKEI
  5
457
 10
7663.37
 20
17040.7
 30
0.000000
  70
    32
  0
VERTEX
  8
HONTAIGAIKEI
  5
458
 10
7664.18
 20
17040.5
 30
0.000000
  70
    32
  0
VERTEX
  8
HONTAIGAIKEI
  5
459
 10
7664.99
 20
17040.3
 30
0.000000
  70
    32
  0
VERTEX
  8
HONTAIGAIKEI
  5
45A
 10
7665.81
 20
17040.2
 30
0.000000
  70
    32
  0
VERTEX
  8
HONTAIGAIKEI
  5
45B
 10
7666.64
 20
17040.0
 30
0.000000
  70
    32
  0
VERTEX
  8
HONTAIGAIKEI
  5
45C
 10
7667.47
 20
17039.9
 30
0.000000
  70
    32
  0
VERTEX
  8
HONTAIGAIKEI
  5
45D
 10
7668.31
 20
17039.8
 30
0.000000
  70
    32
  0
VERTEX
  8
HONTAIGAIKEI
  5
45E
 10
7669.16
 20
17039.7
 30
0.000000
  70
    32
  0
VERTEX
  8
HONTAIGAIKEI
  5
45F
 10
7670.01
 20
17039.6
 30
0.000000
  70
    32
  0
VERTEX
  8
HONTAIGAIKEI
  5
460
 10
7670.86
 20
17039.5
 30
0.000000
  70
    32
  0
VERTEX
  8
HONTAIGAIKEI
  5
461
 10
7671.72
 20
17039.4
 30
0.000000
  70
    32
  0
VERTEX
  8
HONTAIGAIKEI
  5
462
 10
7672.58
 20
17039.3
 30
0.000000
  70
    32
  0
VERTEX
  8
HONTAIGAIKEI
  5
463
 10
7673.44
 20
17039.3
 30
0.000000
  70
    32
  0
VERTEX
  8
HONTAIGAIKEI
  5
464
 10
7674.30
 20
17039.3
 30
0.000000
  70
    32
  0
VERTEX
  8
HONTAIGAIKEI
  5
465
 10
7675.17
 20
17039.2
 30
0.000000
  70
    32
  0
VERTEX
  8
HONTAIGAIKEI
  5
466
 10
7676.04
 20
17039.2
 30
0.000000
  70
    32
  0
VERTEX
  8
HONTAIGAIKEI
  5
467
 10
7676.91
 20
17039.2
 30
0.000000
  70
    32
  0
VERTEX
  8
HONTAIGAIKEI
  5
468
 10
7677.77
 20
17039.2
 30
0.000000
  70
    32
  0
VERTEX
  8
HONTAIGAIKEI
  5
469
 10
7678.64
 20
17039.2
 30
0.000000
  70
    32
  0
VERTEX
  8
HONTAIGAIKEI
  5
46A
 10
7679.51
 20
17039.3
 30
0.000000
  70
    32
  0
VERTEX
  8
HONTAIGAIKEI
  5
46B
 10
7680.37
 20
17039.3
 30
0.000000
  70
    32
  0
VERTEX
  8
HONTAIGAIKEI
  5
46C
 10
7681.24
 20
17039.3
 30
0.000000
  70
    32
  0
VERTEX
  8
HONTAIGAIKEI
  5
46D
 10
7682.10
 20
17039.4
 30
0.000000
  70
    32
  0
VERTEX
  8
HONTAIGAIKEI
  5
46E
 10
7682.95
 20
17039.5
 30
0.000000
  70
    32
  0
VERTEX
  8
HONTAIGAIKEI
  5
46F
 10
7683.81
 20
17039.6
 30
0.000000
  70
    32
  0
VERTEX
  8
HONTAIGAIKEI
  5
470
 10
7684.66
 20
17039.7
 30
0.000000
  70
    32
  0
VERTEX
  8
HONTAIGAIKEI
  5
471
 10
7685.50
 20
17039.8
 30
0.000000
  70
    32
  0
VERTEX
  8
HONTAIGAIKEI
  5
472
 10
7686.34
 20
17039.9
 30
0.000000
  70
    32
  0
VERTEX
  8
HONTAIGAIKEI
  5
473
 10
7687.17
 20
17040.0
 30
0.000000
  70
    32
  0
VERTEX
  8
HONTAIGAIKEI
  5
474
 10
7688.00
 20
17040.2
 30
0.000000
  70
    32
  0
VERTEX
  8
HONTAIGAIKEI
  5
475
 10
7688.82
 20
17040.3
 30
0.000000
  70
    32
  0
VERTEX
  8
HONTAIGAIKEI
  5
476
 10
7689.63
 20
17040.5
 30
0.000000
  70
    32
  0
VERTEX
  8
HONTAIGAIKEI
  5
477
 10
7690.44
 20
17040.7
 30
0.000000
  70
    32
  0
VERTEX
  8
HONTAIGAIKEI
  5
478
 10
7691.24
 20
17040.8
 30
0.000000
  70
    32
  0
VERTEX
  8
HONTAIGAIKEI
  5
479
 10
7692.03
 20
17041.0
 30
0.000000
  70
    32
  0
VERTEX
  8
HONTAIGAIKEI
  5
47A
 10
7692.81
 20
17041.2
 30
0.000000
  70
    32
  0
VERTEX
  8
HONTAIGAIKEI
  5
47B
 10
7693.58
 20
17041.5
 30
0.000000
  70
    32
  0
VERTEX
  8
HONTAIGAIKEI
  5
47C
 10
7694.34
 20
17041.7
 30
0.000000
  70
    32
  0
VERTEX
  8
HONTAIGAIKEI
  5
47D
 10
7695.09
 20
17041.9
 30
0.000000
  70
    32
  0
VERTEX
  8
HONTAIGAIKEI
  5
47E
 10
7695.82
 20
17042.2
 30
0.000000
  70
    32
  0
VERTEX
  8
HONTAIGAIKEI
  5
47F
 10
7696.55
 20
17042.4
 30
0.000000
  70
    32
  0
VERTEX
  8
HONTAIGAIKEI
  5
480
 10
7697.27
 20
17042.7
 30
0.000000
  70
    32
  0
VERTEX
  8
HONTAIGAIKEI
  5
481
 10
7697.97
 20
17043.0
 30
0.000000
  70
    32
  0
VERTEX
  8
HONTAIGAIKEI
  5
482
 10
7698.66
 20
17043.2
 30
0.000000
  70
    32
  0
VERTEX
  8
HONTAIGAIKEI
  5
483
 10
7699.34
 20
17043.5
 30
0.000000
  70
    32
  0
VERTEX
  8
HONTAIGAIKEI
  5
484
 10
7700.00
 20
17043.8
 30
0.000000
  70
    32
  0
VERTEX
  8
HONTAIGAIKEI
  5
485
 10
7700.65
 20
17044.1
 30
0.000000
  70
    32
  0
VERTEX
  8
HONTAIGAIKEI
  5
486
 10
7701.28
 20
17044.5
 30
0.000000
  70
    32
  0
VERTEX
  8
HONTAIGAIKEI
  5
487
 10
7701.90
 20
17044.8
 30
0.000000
  70
    32
  0
VERTEX
  8
HONTAIGAIKEI
  5
488
 10
7702.51
 20
17045.1
 30
0.000000
  70
    32
  0
VERTEX
  8
HONTAIGAIKEI
  5
489
 10
7703.10
 20
17045.5
 30
0.000000
  70
    32
  0
VERTEX
  8
HONTAIGAIKEI
  5
48A
 10
7703.67
 20
17045.8
 30
0.000000
  70
    32
  0
VERTEX
  8
HONTAIGAIKEI
  5
48B
 10
7704.23
 20
17046.2
 30
0.000000
  70
    32
  0
VERTEX
  8
HONTAIGAIKEI
  5
48C
 10
7704.77
 20
17046.5
 30
0.000000
  70
    32
  0
VERTEX
  8
HONTAIGAIKEI
  5
48D
 10
7705.29
 20
17046.9
 30
0.000000
  70
    32
  0
VERTEX
  8
HONTAIGAIKEI
  5
48E
 10
7705.80
 20
17047.3
 30
0.000000
  70
    32
  0
VERTEX
  8
HONTAIGAIKEI
  5
48F
 10
7706.29
 20
17047.7
 30
0.000000
  70
    32
  0
VERTEX
  8
HONTAIGAIKEI
  5
490
 10
7706.76
 20
17048.1
 30
0.000000
  70
    32
  0
VERTEX
  8
HONTAIGAIKEI
  5
491
 10
7707.22
 20
17048.5
 30
0.000000
  70
    32
  0
VERTEX
  8
HONTAIGAIKEI
  5
492
 10
7707.65
 20
17048.9
 30
0.000000
  70
    32
  0
VERTEX
  8
HONTAIGAIKEI
  5
493
 10
7708.07
 20
17049.3
 30
0.000000
  70
    32
  0
VERTEX
  8
HONTAIGAIKEI
  5
494
 10
7708.47
 20
17049.7
 30
0.000000
  70
    32
  0
VERTEX
  8
HONTAIGAIKEI
  5
495
 10
7708.84
 20
17050.1
 30
0.000000
  70
    32
  0
VERTEX
  8
HONTAIGAIKEI
  5
496
 10
7709.20
 20
17050.5
 30
0.000000
  70
    32
  0
VERTEX
  8
HONTAIGAIKEI
  5
497
 10
7709.54
 20
17051.0
 30
0.000000
  70
    32
  0
VERTEX
  8
HONTAIGAIKEI
  5
498
 10
7709.86
 20
17051.4
 30
0.000000
  70
    32
  0
VERTEX
  8
HONTAIGAIKEI
  5
499
 10
7710.16
 20
17051.9
 30
0.000000
  70
    32
  0
VERTEX
  8
HONTAIGAIKEI
  5
49A
 10
7710.44
 20
17052.3
 30
0.000000
  70
    32
  0
VERTEX
  8
HONTAIGAIKEI
  5
49B
 10
7710.70
 20
17052.7
 30
0.000000
  70
    32
  0
VERTEX
  8
HONTAIGAIKEI
  5
49C
 10
7710.94
 20
17053.2
 30
0.000000
  70
    32
  0
VERTEX
  8
HONTAIGAIKEI
  5
49D
 10
7711.16
 20
17053.6
 30
0.000000
  70
    32
  0
VERTEX
  8
HONTAIGAIKEI
  5
49E
 10
7711.36
 20
17054.1
 30
0.000000
  70
    32
  0
VERTEX
  8
HONTAIGAIKEI
  5
49F
 10
7711.54
 20
17054.6
 30
0.000000
  70
    32
  0
VERTEX
  8
HONTAIGAIKEI
  5
4A0
 10
7711.69
 20
17055.0
 30
0.000000
  70
    32
  0
VERTEX
  8
HONTAIGAIKEI
  5
4A1
 10
7711.83
 20
17055.5
 30
0.000000
  70
    32
  0
VERTEX
  8
HONTAIGAIKEI
  5
4A2
 10
7711.94
 20
17055.9
 30
0.000000
  70
    32
  0
VERTEX
  8
HONTAIGAIKEI
  5
4A3
 10
7712.03
 20
17056.4
 30
0.000000
  70
    32
  0
VERTEX
  8
HONTAIGAIKEI
  5
4A4
 10
7712.10
 20
17056.9
 30
0.000000
  70
    32
  0
VERTEX
  8
HONTAIGAIKEI
  5
4A5
 10
7712.15
 20
17057.3
 30
0.000000
  70
    32
  0
VERTEX
  8
HONTAIGAIKEI
  5
4A6
 10
7712.18
 20
17057.8
 30
0.000000
  70
    32
  0
VERTEX
  8
HONTAIGAIKEI
  5
4A7
 10
7712.19
 20
17058.3
 30
0.000000
  70
    32
  0
SEQEND
  8
HONTAIGAIKEI
  5
4A8
  0
LINE
  5
137
  8
HONTAIGAIKEI
 10
7712.1900888396658
 20
17058.271953631262
 30
0.0
 11
8546.9063567025769
 21
17058.271953631262
 31
0.0
  0
LINE
  5
138
  8
HONTAIGAIKEI
 10
7641.6216014539714
 20
17058.271953631262
 30
0.0
 11
7641.6216014539714
 21
17105.440827839491
 31
0.0
  0
LINE
  5
139
  8
HONTAIGAIKEI
 10
7712.1900888396658
 20
17058.271953631262
 30
0.0
 11
7712.1900888396658
 21
17106.258424388921
 31
0.0
  0
POLYLINE
  5
13A
  8
TLINE
 10
7879.8161063644357
 20
17058.271953631254
 30
0.0
 66
     1
 70
     8
  0
VERTEX
  8
TLINE
  5
4A9
 10
7879.82
 20
17058.3
 30
0.000000
  70
    32
  0
VERTEX
  8
TLINE
  5
4AA
 10
7879.88
 20
17057.8
 30
0.000000
  70
    32
  0
VERTEX
  8
TLINE
  5
4AB
 10
7879.98
 20
17057.2
 30
0.000000
  70
    32
  0
VERTEX
  8
TLINE
  5
4AC
 10
7880.10
 20
17056.7
 30
0.000000
  70
    32
  0
VERTEX
  8
TLINE
  5
4AD
 10
7880.24
 20
17056.2
 30
0.000000
  70
    32
  0
VERTEX
  8
TLINE
  5
4AE
 10
7880.42
 20
17055.7
 30
0.000000
  70
    32
  0
VERTEX
  8
TLINE
  5
4AF
 10
7880.62
 20
17055.2
 30
0.000000
  70
    32
  0
VERTEX
  8
TLINE
  5
4B0
 10
7880.85
 20
17054.7
 30
0.000000
  70
    32
  0
VERTEX
  8
TLINE
  5
4B1
 10
7881.10
 20
17054.2
 30
0.000000
  70
    32
  0
VERTEX
  8
TLINE
  5
4B2
 10
7881.38
 20
17053.7
 30
0.000000
  70
    32
  0
VERTEX
  8
TLINE
  5
4B3
 10
7881.69
 20
17053.2
 30
0.000000
  70
    32
  0
VERTEX
  8
TLINE
  5
4B4
 10
7882.02
 20
17052.7
 30
0.000000
  70
    32
  0
VERTEX
  8
TLINE
  5
4B5
 10
7882.38
 20
17052.2
 30
0.000000
  70
    32
  0
VERTEX
  8
TLINE
  5
4B6
 10
7882.76
 20
17051.7
 30
0.000000
  70
    32
  0
VERTEX
  8
TLINE
  5
4B7
 10
7883.17
 20
17051.2
 30
0.000000
  70
    32
  0
VERTEX
  8
TLINE
  5
4B8
 10
7883.61
 20
17050.8
 30
0.000000
  70
    32
  0
VERTEX
  8
TLINE
  5
4B9
 10
7884.07
 20
17050.3
 30
0.000000
  70
    32
  0
VERTEX
  8
TLINE
  5
4BA
 10
7884.55
 20
17049.8
 30
0.000000
  70
    32
  0
VERTEX
  8
TLINE
  5
4BB
 10
7885.06
 20
17049.3
 30
0.000000
  70
    32
  0
VERTEX
  8
TLINE
  5
4BC
 10
7885.59
 20
17048.9
 30
0.000000
  70
    32
  0
VERTEX
  8
TLINE
  5
4BD
 10
7886.15
 20
17048.4
 30
0.000000
  70
    32
  0
VERTEX
  8
TLINE
  5
4BE
 10
7886.73
 20
17048.0
 30
0.000000
  70
    32
  0
VERTEX
  8
TLINE
  5
4BF
 10
7887.33
 20
17047.6
 30
0.000000
  70
    32
  0
VERTEX
  8
TLINE
  5
4C0
 10
7887.96
 20
17047.1
 30
0.000000
  70
    32
  0
VERTEX
  8
TLINE
  5
4C1
 10
7888.60
 20
17046.7
 30
0.000000
  70
    32
  0
VERTEX
  8
TLINE
  5
4C2
 10
7889.27
 20
17046.3
 30
0.000000
  70
    32
  0
VERTEX
  8
TLINE
  5
4C3
 10
7889.97
 20
17045.9
 30
0.000000
  70
    32
  0
VERTEX
  8
TLINE
  5
4C4
 10
7890.68
 20
17045.5
 30
0.000000
  70
    32
  0
VERTEX
  8
TLINE
  5
4C5
 10
7891.41
 20
17045.1
 30
0.000000
  70
    32
  0
VERTEX
  8
TLINE
  5
4C6
 10
7892.17
 20
17044.7
 30
0.000000
  70
    32
  0
VERTEX
  8
TLINE
  5
4C7
 10
7892.94
 20
17044.3
 30
0.000000
  70
    32
  0
VERTEX
  8
TLINE
  5
4C8
 10
7893.74
 20
17043.9
 30
0.000000
  70
    32
  0
VERTEX
  8
TLINE
  5
4C9
 10
7894.55
 20
17043.6
 30
0.000000
  70
    32
  0
VERTEX
  8
TLINE
  5
4CA
 10
7895.38
 20
17043.2
 30
0.000000
  70
    32
  0
VERTEX
  8
TLINE
  5
4CB
 10
7896.23
 20
17042.9
 30
0.000000
  70
    32
  0
VERTEX
  8
TLINE
  5
4CC
 10
7897.10
 20
17042.5
 30
0.000000
  70
    32
  0
VERTEX
  8
TLINE
  5
4CD
 10
7897.99
 20
17042.2
 30
0.000000
  70
    32
  0
VERTEX
  8
TLINE
  5
4CE
 10
7898.89
 20
17041.9
 30
0.000000
  70
    32
  0
VERTEX
  8
TLINE
  5
4CF
 10
7899.81
 20
17041.6
 30
0.000000
  70
    32
  0
VERTEX
  8
TLINE
  5
4D0
 10
7900.74
 20
17041.3
 30
0.000000
  70
    32
  0
VERTEX
  8
TLINE
  5
4D1
 10
7901.69
 20
17041.0
 30
0.000000
  70
    32
  0
VERTEX
  8
TLINE
  5
4D2
 10
7902.66
 20
17040.7
 30
0.000000
  70
    32
  0
VERTEX
  8
TLINE
  5
4D3
 10
7903.63
 20
17040.5
 30
0.000000
  70
    32
  0
VERTEX
  8
TLINE
  5
4D4
 10
7904.63
 20
17040.2
 30
0.000000
  70
    32
  0
VERTEX
  8
TLINE
  5
4D5
 10
7905.63
 20
17040.0
 30
0.000000
  70
    32
  0
VERTEX
  8
TLINE
  5
4D6
 10
7906.65
 20
17039.8
 30
0.000000
  70
    32
  0
VERTEX
  8
TLINE
  5
4D7
 10
7907.68
 20
17039.5
 30
0.000000
  70
    32
  0
VERTEX
  8
TLINE
  5
4D8
 10
7908.72
 20
17039.3
 30
0.000000
  70
    32
  0
VERTEX
  8
TLINE
  5
4D9
 10
7909.77
 20
17039.1
 30
0.000000
  70
    32
  0
VERTEX
  8
TLINE
  5
4DA
 10
7910.83
 20
17038.9
 30
0.000000
  70
    32
  0
VERTEX
  8
TLINE
  5
4DB
 10
7911.90
 20
17038.8
 30
0.000000
  70
    32
  0
VERTEX
  8
TLINE
  5
4DC
 10
7912.98
 20
17038.6
 30
0.000000
  70
    32
  0
VERTEX
  8
TLINE
  5
4DD
 10
7914.07
 20
17038.5
 30
0.000000
  70
    32
  0
VERTEX
  8
TLINE
  5
4DE
 10
7915.16
 20
17038.3
 30
0.000000
  70
    32
  0
VERTEX
  8
TLINE
  5
4DF
 10
7916.26
 20
17038.2
 30
0.000000
  70
    32
  0
VERTEX
  8
TLINE
  5
4E0
 10
7917.37
 20
17038.1
 30
0.000000
  70
    32
  0
VERTEX
  8
TLINE
  5
4E1
 10
7918.49
 20
17038.0
 30
0.000000
  70
    32
  0
VERTEX
  8
TLINE
  5
4E2
 10
7919.61
 20
17037.9
 30
0.000000
  70
    32
  0
VERTEX
  8
TLINE
  5
4E3
 10
7920.73
 20
17037.8
 30
0.000000
  70
    32
  0
VERTEX
  8
TLINE
  5
4E4
 10
7921.86
 20
17037.7
 30
0.000000
  70
    32
  0
VERTEX
  8
TLINE
  5
4E5
 10
7922.99
 20
17037.7
 30
0.000000
  70
    32
  0
VERTEX
  8
TLINE
  5
4E6
 10
7924.12
 20
17037.6
 30
0.000000
  70
    32
  0
VERTEX
  8
TLINE
  5
4E7
 10
7925.26
 20
17037.6
 30
0.000000
  70
    32
  0
VERTEX
  8
TLINE
  5
4E8
 10
7926.40
 20
17037.6
 30
0.000000
  70
    32
  0
VERTEX
  8
TLINE
  5
4E9
 10
7927.53
 20
17037.6
 30
0.000000
  70
    32
  0
VERTEX
  8
TLINE
  5
4EA
 10
7928.67
 20
17037.6
 30
0.000000
  70
    32
  0
VERTEX
  8
TLINE
  5
4EB
 10
7929.81
 20
17037.6
 30
0.000000
  70
    32
  0
VERTEX
  8
TLINE
  5
4EC
 10
7930.94
 20
17037.6
 30
0.000000
  70
    32
  0
VERTEX
  8
TLINE
  5
4ED
 10
7932.08
 20
17037.7
 30
0.000000
  70
    32
  0
VERTEX
  8
TLINE
  5
4EE
 10
7933.21
 20
17037.7
 30
0.000000
  70
    32
  0
VERTEX
  8
TLINE
  5
4EF
 10
7934.34
 20
17037.8
 30
0.000000
  70
    32
  0
VERTEX
  8
TLINE
  5
4F0
 10
7935.46
 20
17037.9
 30
0.000000
  70
    32
  0
VERTEX
  8
TLINE
  5
4F1
 10
7936.58
 20
17038.0
 30
0.000000
  70
    32
  0
VERTEX
  8
TLINE
  5
4F2
 10
7937.70
 20
17038.1
 30
0.000000
  70
    32
  0
VERTEX
  8
TLINE
  5
4F3
 10
7938.80
 20
17038.2
 30
0.000000
  70
    32
  0
VERTEX
  8
TLINE
  5
4F4
 10
7939.91
 20
17038.3
 30
0.000000
  70
    32
  0
VERTEX
  8
TLINE
  5
4F5
 10
7941.00
 20
17038.5
 30
0.000000
  70
    32
  0
VERTEX
  8
TLINE
  5
4F6
 10
7942.09
 20
17038.6
 30
0.000000
  70
    32
  0
VERTEX
  8
TLINE
  5
4F7
 10
7943.17
 20
17038.8
 30
0.000000
  70
    32
  0
VERTEX
  8
TLINE
  5
4F8
 10
7944.24
 20
17038.9
 30
0.000000
  70
    32
  0
VERTEX
  8
TLINE
  5
4F9
 10
7945.30
 20
17039.1
 30
0.000000
  70
    32
  0
VERTEX
  8
TLINE
  5
4FA
 10
7946.35
 20
17039.3
 30
0.000000
  70
    32
  0
VERTEX
  8
TLINE
  5
4FB
 10
7947.39
 20
17039.5
 30
0.000000
  70
    32
  0
VERTEX
  8
TLINE
  5
4FC
 10
7948.42
 20
17039.8
 30
0.000000
  70
    32
  0
VERTEX
  8
TLINE
  5
4FD
 10
7949.44
 20
17040.0
 30
0.000000
  70
    32
  0
VERTEX
  8
TLINE
  5
4FE
 10
7950.44
 20
17040.2
 30
0.000000
  70
    32
  0
VERTEX
  8
TLINE
  5
4FF
 10
7951.43
 20
17040.5
 30
0.000000
  70
    32
  0
VERTEX
  8
TLINE
  5
500
 10
7952.41
 20
17040.7
 30
0.000000
  70
    32
  0
VERTEX
  8
TLINE
  5
501
 10
7953.38
 20
17041.0
 30
0.000000
  70
    32
  0
VERTEX
  8
TLINE
  5
502
 10
7954.33
 20
17041.3
 30
0.000000
  70
    32
  0
VERTEX
  8
TLINE
  5
503
 10
7955.26
 20
17041.6
 30
0.000000
  70
    32
  0
VERTEX
  8
TLINE
  5
504
 10
7956.18
 20
17041.9
 30
0.000000
  70
    32
  0
VERTEX
  8
TLINE
  5
505
 10
7957.08
 20
17042.2
 30
0.000000
  70
    32
  0
VERTEX
  8
TLINE
  5
506
 10
7957.97
 20
17042.5
 30
0.000000
  70
    32
  0
VERTEX
  8
TLINE
  5
507
 10
7958.83
 20
17042.9
 30
0.000000
  70
    32
  0
VERTEX
  8
TLINE
  5
508
 10
7959.68
 20
17043.2
 30
0.000000
  70
    32
  0
VERTEX
  8
TLINE
  5
509
 10
7960.52
 20
17043.6
 30
0.000000
  70
    32
  0
VERTEX
  8
TLINE
  5
50A
 10
7961.33
 20
17043.9
 30
0.000000
  70
    32
  0
VERTEX
  8
TLINE
  5
50B
 10
7962.12
 20
17044.3
 30
0.000000
  70
    32
  0
VERTEX
  8
TLINE
  5
50C
 10
7962.90
 20
17044.7
 30
0.000000
  70
    32
  0
VERTEX
  8
TLINE
  5
50D
 10
7963.65
 20
17045.1
 30
0.000000
  70
    32
  0
VERTEX
  8
TLINE
  5
50E
 10
7964.39
 20
17045.5
 30
0.000000
  70
    32
  0
VERTEX
  8
TLINE
  5
50F
 10
7965.10
 20
17045.9
 30
0.000000
  70
    32
  0
VERTEX
  8
TLINE
  5
510
 10
7965.79
 20
17046.3
 30
0.000000
  70
    32
  0
VERTEX
  8
TLINE
  5
511
 10
7966.46
 20
17046.7
 30
0.000000
  70
    32
  0
VERTEX
  8
TLINE
  5
512
 10
7967.11
 20
17047.1
 30
0.000000
  70
    32
  0
VERTEX
  8
TLINE
  5
513
 10
7967.74
 20
17047.6
 30
0.000000
  70
    32
  0
VERTEX
  8
TLINE
  5
514
 10
7968.34
 20
17048.0
 30
0.000000
  70
    32
  0
VERTEX
  8
TLINE
  5
515
 10
7968.92
 20
17048.4
 30
0.000000
  70
    32
  0
VERTEX
  8
TLINE
  5
516
 10
7969.48
 20
17048.9
 30
0.000000
  70
    32
  0
VERTEX
  8
TLINE
  5
517
 10
7970.01
 20
17049.3
 30
0.000000
  70
    32
  0
VERTEX
  8
TLINE
  5
518
 10
7970.52
 20
17049.8
 30
0.000000
  70
    32
  0
VERTEX
  8
TLINE
  5
519
 10
7971.00
 20
17050.3
 30
0.000000
  70
    32
  0
VERTEX
  8
TLINE
  5
51A
 10
7971.46
 20
17050.8
 30
0.000000
  70
    32
  0
VERTEX
  8
TLINE
  5
51B
 10
7971.90
 20
17051.2
 30
0.000000
  70
    32
  0
VERTEX
  8
TLINE
  5
51C
 10
7972.31
 20
17051.7
 30
0.000000
  70
    32
  0
VERTEX
  8
TLINE
  5
51D
 10
7972.69
 20
17052.2
 30
0.000000
  70
    32
  0
VERTEX
  8
TLINE
  5
51E
 10
7973.05
 20
17052.7
 30
0.000000
  70
    32
  0
VERTEX
  8
TLINE
  5
51F
 10
7973.38
 20
17053.2
 30
0.000000
  70
    32
  0
VERTEX
  8
TLINE
  5
520
 10
7973.69
 20
17053.7
 30
0.000000
  70
    32
  0
VERTEX
  8
TLINE
  5
521
 10
7973.97
 20
17054.2
 30
0.000000
  70
    32
  0
VERTEX
  8
TLINE
  5
522
 10
7974.22
 20
17054.7
 30
0.000000
  70
    32
  0
VERTEX
  8
TLINE
  5
523
 10
7974.45
 20
17055.2
 30
0.000000
  70
    32
  0
VERTEX
  8
TLINE
  5
524
 10
7974.65
 20
17055.7
 30
0.000000
  70
    32
  0
VERTEX
  8
TLINE
  5
525
 10
7974.82
 20
17056.2
 30
0.000000
  70
    32
  0
VERTEX
  8
TLINE
  5
526
 10
7974.97
 20
17056.7
 30
0.000000
  70
    32
  0
VERTEX
  8
TLINE
  5
527
 10
7975.09
 20
17057.2
 30
0.000000
  70
    32
  0
VERTEX
  8
TLINE
  5
528
 10
7975.19
 20
17057.8
 30
0.000000
  70
    32
  0
VERTEX
  8
TLINE
  5
529
 10
7975.25
 20
17058.3
 30
0.000000
  70
    32
  0
SEQEND
  8
TLINE
  5
52A
  0
LINE
  5
13B
  8
TLINE
 10
7463.4070303766957
 20
17058.271953631262
 30
0.0
 11
7463.4070303766957
 21
16848.271953631262
 31
0.0
  0
LINE
  5
13C
  8
TLINE
 10
7502.4913984834011
 20
17058.271953631262
 30
0.0
 11
7502.4913984833865
 21
16848.271953631262
 31
0.0
  0
LINE
  5
13D
  8
TLINE
 10
8262.4655691523985
 20
17058.271953631262
 30
0.0
 11
8262.4655691523985
 21
16848.271953631262
 31
0.0
  0
LINE
  5
13E
  8
TLINE
 10
8223.3812010456932
 20
17058.271953631262
 30
0.0
 11
8223.3812010456932
 21
16848.271953631262
 31
0.0
  0
LINE
  5
13F
  8
TLINE
 10
8223.3812010456932
 20
16728.271953631262
 30
0.0
 11
8223.3812010456932
 21
16652.611666094919
 31
0.0
  0
LINE
  5
140
  8
TLINE
 10
8262.4655691523985
 20
16728.271953631262
 30
0.0
 11
8262.4655691523985
 21
16652.611666094919
 31
0.0
  0
LINE
  5
141
  8
TLINE
 10
7502.4913984833865
 20
16728.271953631262
 30
0.0
 11
7502.4913984834011
 21
16652.611666094919
 31
0.0
  0
LINE
  5
142
  8
TLINE
 10
7463.4070303766957
 20
16728.271953631262
 30
0.0
 11
7463.4070303766821
 21
16652.611666094919
 31
0.0
  0
LINE
  5
143
  8
TLINE
 10
7430.1839897962964
 20
16652.611666094919
 30
0.0
 11
7430.1839897962964
 21
16618.271953631262
 31
0.0
  0
LINE
  5
144
  8
TLINE
 10
7449.7261926288666
 20
16652.611666094919
 30
0.0
 11
7449.7261926288666
 21
16618.271953631262
 31
0.0
  0
LINE
  5
145
  8
TLINE
 10
7534.409021492047
 20
16652.611666094919
 30
0.0
 11
7534.409021492047
 21
16618.271953631262
 31
0.0
  0
LINE
  5
146
  8
TLINE
 10
7514.8668186594914
 20
16652.611666094919
 30
0.0
 11
7514.8668186594914
 21
16618.271953631262
 31
0.0
  0
LINE
  5
147
  8
TLINE
 10
8209.7003632978485
 20
16652.611666094919
 30
0.0
 11
8209.7003632978485
 21
16618.271953631262
 31
0.0
  0
LINE
  5
148
  8
TLINE
 10
8190.158160465292
 20
16652.611666094919
 30
0.0
 11
8190.158160465292
 21
16618.271953631262
 31
0.0
  0
LINE
  5
149
  8
TLINE
 10
8292.2118655028644
 20
16654.1855113079
 30
0.0
 11
8292.2118655028644
 21
16618.271953631262
 31
0.0
  0
LINE
  5
14A
  8
TLINE
 10
8272.6696626703088
 20
16652.611666094919
 30
0.0
 11
8272.6696626703088
 21
16618.271953631262
 31
0.0
  0
LINE
  5
14B
  8
HONTAIGAIKEI
 10
8798.7835166339828
 20
17218.271953631262
 30
0.0
 11
8607.7042918584375
 21
16916.096524075969
 31
0.0
  0
LINE
  5
14C
  8
HONTAIGAIKEI
 10
8625.0751304743935
 20
16916.096524075969
 30
0.0
 11
8546.9063567025769
 21
16916.096524075969
 31
0.0
  0
LINE
  5
14D
  8
HONTAIGAIKEI
 10
8546.9063567025769
 20
16916.096524075969
 30
0.0
 11
8546.9063567025769
 21
17180.774666764999
 31
0.0
  0
LINE
  5
14E
  8
HONTAIGAIKEI
 10
8546.9063567025769
 20
17180.774666764999
 30
0.0
 11
8625.0751304743935
 21
17180.774666764999
 31
0.0
  0
LINE
  5
14F
  8
HONTAIGAIKEI
 10
8625.0751304743935
 20
17180.774666764999
 30
0.0
 11
8625.0751304743935
 21
17020.8277883349
 31
0.0
  0
LINE
  5
150
  8
HONTAIGAIKEI
 10
8749.9280283317967
 20
17218.271953631262
 30
0.0
 11
8558.8488035562514
 21
16916.096524075969
 31
0.0
  0
LINE
  5
151
  8
HONTAIGAIKEI
 10
8697.6082622161084
 20
17058.271953631262
 30
0.0
 11
8848.6100053760456
 21
17058.271953631262
 31
0.0
  0
LINE
  5
152
  8
HONTAIGAIKEI
 10
8625.0751304743935
 20
16943.567017671889
 30
0.0
 11
8625.0751304743935
 21
16916.096524075969
 31
0.0
  0
LINE
  5
153
  8
HONTAIGAIKEI
 10
8625.0751304743935
 20
17058.271953631262
 30
0.0
 11
8648.7527739139223
 21
17058.271953631262
 31
0.0
  0
LINE
  5
154
  8
HONTAIGAIKEI
 10
8648.7527739139223
 20
17058.271953631262
 30
0.0
 11
8648.7527739139223
 21
17278.271953631262
 31
0.0
  0
LINE
  5
155
  8
HONTAIGAIKEI
 10
8771.093105222757
 20
17174.481939449579
 30
0.0
 11
10008.880854666389
 21
17174.481939449579
 31
0.0
  0
LINE
  5
156
  8
HONTAIGAIKEI
 10
10008.880854666389
 20
17174.481939449579
 30
0.0
 11
10008.880854666389
 21
17002.442341914
 31
0.0
  0
LINE
  5
157
  8
HONTAIGAIKEI
 10
10008.880854666389
 20
17002.442341914
 30
0.0
 11
9477.4937777673658
 21
17002.442341914
 31
0.0
  0
LINE
  5
158
  8
HONTAIGAIKEI
 10
8873.262289537688
 20
17174.481939449579
 30
0.0
 11
8873.262289537688
 21
17071.253954343549
 31
0.0
  0
LINE
  5
159
  8
HONTAIGAIKEI
 10
8901.4899116782217
 20
17218.271953631262
 30
0.0
 11
8901.4899116782217
 21
17174.481939449579
 31
0.0
  0
LINE
  5
15A
  8
HONTAIGAIKEI
 10
8997.0294865075884
 20
17218.271953631262
 30
0.0
 11
8997.0294865075884
 21
17174.481939449579
 31
0.0
  0
LINE
  5
15B
  8
HONTAIGAIKEI
 10
10141.76636914988
 20
17218.271953631262
 30
0.0
 11
10141.76636914988
 21
17058.271953631262
 31
0.0
  0
LINE
  5
15C
  8
HONTAIGAIKEI
 10
10085.311124868789
 20
17218.271953631262
 30
0.0
 11
10085.311124868789
 21
17058.271953631262
 31
0.0
  0
LINE
  5
15D
  8
HONTAIGAIKEI
 10
10306.78933600149
 20
17218.271953631262
 30
0.0
 11
10306.78933600149
 21
17117.091186290669
 31
0.0
  0
LINE
  5
15E
  8
HONTAIGAIKEI
 10
10354.55912341616
 20
17218.271953631262
 30
0.0
 11
10354.55912341616
 21
17124.701804146309
 31
0.0
  0
LINE
  5
15F
  8
HONTAIGAIKEI
 10
8517.1244370179957
 20
16807.18799045487
 30
0.0
 11
8617.0269984273073
 21
16807.18799045487
 31
0.0
  0
LINE
  5
160
  8
HONTAIGAIKEI
 10
11122.133050064051
 20
16807.18799045487
 30
0.0
 11
11200.30182383586
 21
16746.442173128711
 31
0.0
  0
LINE
  5
161
  8
HONTAIGAIKEI
 10
11200.30182383586
 20
16746.442173128711
 30
0.0
 11
11252.41433968373
 21
16746.442173128711
 31
0.0
  0
LINE
  5
162
  8
HONTAIGAIKEI
 10
11252.41433968373
 20
16746.442173128711
 30
0.0
 11
11252.41433968373
 21
16996.546793770631
 31
0.0
  0
LINE
  5
163
  8
HONTAIGAIKEI
 10
11008.61125397656
 20
17076.28834306619
 30
0.0
 11
11252.41433968373
 21
16996.546793770631
 31
0.0
  0
LINE
  5
164
  8
HONTAIGAIKEI
 10
11008.61125397656
 20
17076.288343066179
 30
0.0
 11
10992.71759441398
 21
17110.917036169059
 31
0.0
  0
LINE
  5
165
  8
HONTAIGAIKEI
 10
10992.71759441398
 20
17110.917036169059
 30
0.0
 11
10477.02079013908
 21
17269.29002922479
 31
0.0
  0
LINE
  5
166
  8
HONTAIGAIKEI
 10
10477.02079013908
 20
17269.29002922479
 30
0.0
 11
10405.38477264118
 21
17271.519397204971
 31
0.0
  0
LINE
  5
167
  8
HONTAIGAIKEI
 10
10917.22187560868
 20
16807.18799045487
 30
0.0
 11
11026.03190306794
 21
16807.18799045487
 31
0.0
  0
LINE
  5
168
  8
HONTAIGAIKEI
 10
11065.59199517894
 20
16807.18799045487
 30
0.0
 11
11122.133050064051
 21
16807.18799045487
 31
0.0
  0
CIRCLE
  5
169
  8
HONTAIGAIKEI
 10
9767.1244370179975
 20
16585.899717284548
 30
0.0
 40
51.367867353759912
  0
LINE
  5
16A
  8
HONTAIGAIKEI
 10
9639.7470599245753
 20
16931.795275197808
 30
0.0
 11
9639.7470599245753
 21
16749.635876398701
 31
0.0
  0
LINE
  5
16B
  8
HONTAIGAIKEI
 10
9894.5018141114451
 20
16931.795275197808
 30
0.0
 11
9894.5018141114451
 21
16749.635876398759
 31
0.0
  0
ARC
  5
16C
  8
HONTAIGAIKEI
 10
9767.1244370179975
 20
16585.899717284548
 30
0.0
 40
368.60376175417599
 50
69.783575200388967
 51
110.216424799611
  0
LINE
  5
16D
  8
HONTAIGAIKEI
 10
9890.2762887413173
 20
16420.376327797501
 30
0.0
 11
9860.9452048736166
 21
16328.27195363126
 31
0.0
  0
LINE
  5
16E
  8
HONTAIGAIKEI
 10
9642.6222191956367
 20
16424.61669699111
 30
0.0
 11
9673.3036691624038
 21
16328.27195363126
 31
0.0
  0
LINE
  5
16F
  8
HONTAIGAIKEI
 10
9673.3036691624038
 20
16328.27195363126
 30
0.0
 11
9860.9452048736166
 21
16328.27195363126
 31
0.0
  0
LINE
  5
170
  8
HONTAIGAIKEI
 10
9924.5018141114451
 20
16931.795275197808
 30
0.0
 11
9924.5018141114451
 21
16822.859261970571
 31
0.0
  0
LINE
  5
171
  8
HONTAIGAIKEI
 10
9609.7470599245753
 20
16931.795275197808
 30
0.0
 11
9609.7470599245753
 21
16822.859261970509
 31
0.0
  0
LINE
  5
172
  8
HONTAIGAIKEI
 10
9609.7470599245753
 20
16931.795275197808
 30
0.0
 11
9639.7470599245753
 21
16931.795275197808
 31
0.0
  0
LINE
  5
173
  8
HONTAIGAIKEI
 10
9924.5018141114451
 20
16931.795275197808
 30
0.0
 11
9894.5018141114451
 21
16931.795275197808
 31
0.0
  0
LINE
  5
174
  8
HONTAIGAIKEI
 10
6817.1244370179957
 20
17228.271953631262
 30
0.0
 11
7017.7869658467707
 21
17089.22212186805
 31
0.0
  0
LINE
  5
175
  8
HONTAIGAIKEI
 10
7017.7869658467707
 20
17089.22212186805
 30
0.0
 11
7017.7869658467707
 21
17028.950853029299
 31
0.0
  0
LINE
  5
176
  8
HONTAIGAIKEI
 10
6997.7869658467716
 20
17008.950853029299
 30
0.0
 11
6741.9926119775218
 21
17008.950853029299
 31
0.0
  0
LINE
  5
177
  8
HONTAIGAIKEI
 10
6741.9926119775218
 20
17008.950853029299
 30
0.0
 11
6477.0562810603042
 21
17228.271953631262
 31
0.0
  0
LINE
  5
178
  8
HONTAIGAIKEI
 10
7017.7869658467707
 20
17058.271953631262
 30
0.0
 11
7117.1244370179957
 21
17058.271953631262
 31
0.0
  0
LINE
  5
179
  8
HONTAIGAIKEI
 10
7236.5971058913156
 20
17058.271953631262
 30
0.0
 11
7641.6216014539714
 21
17058.271953631262
 31
0.0
  0
LINE
  5
17A
  8
HONTAIGAIKEI
 10
7157.1244370179948
 20
17058.271953631262
 30
0.0
 11
7195.3413625284038
 21
17058.271953631262
 31
0.0
  0
LINE
  5
17B
  8
HONTAIGAIKEI
 10
7087.1244370179948
 20
17248.271953631262
 30
0.0
 11
7087.1244370179948
 21
17121.62888958769
 31
0.0
  0
LINE
  5
17C
  8
HONTAIGAIKEI
 10
7047.1244370179957
 20
17081.628889587679
 30
0.0
 11
7017.7869658467707
 21
17081.62888958769
 31
0.0
  0
ARC
  5
17D
  8
HONTAIGAIKEI
 10
7047.1244370179957
 20
17121.62888958769
 30
0.0
 40
40.0
 50
270.0
 51
0.0
  0
LINE
  5
17E
  8
TLINE
 10
6708.76904557941
 20
16378.27195363126
 30
0.0
 11
7263.1821831252782
 21
16378.27195363126
 31
0.0
  0
ARC
  5
17F
  8
TLINE
 10
6708.76904557941
 20
16438.271953631262
 30
0.0
 40
60.000000000007283
 50
90.0
 51
270.0
  0
LINE
  5
180
  8
TLINE
 10
7263.1821831252782
 20
16498.271953631269
 30
0.0
 11
7263.1821831252782
 21
16378.27195363126
 31
0.0
  0
LINE
  5
181
  8
TLINE
 10
7481.4289064294026
 20
16498.271953631269
 30
0.0
 11
7481.4289064294026
 21
16428.271953631262
 31
0.0
  0
LINE
  5
182
  8
TLINE
 10
7507.4882065843449
 20
16498.271953631269
 30
0.0
 11
7507.4882065843449
 21
16428.271953631262
 31
0.0
  0
LINE
  5
183
  8
TLINE
 10
7533.5475442977222
 20
16498.271953631269
 30
0.0
 11
7533.5475442977222
 21
16428.271953631262
 31
0.0
  0
LINE
  5
184
  8
TLINE
 10
7263.1821831252782
 20
16378.27195363126
 30
0.0
 11
7481.4289064294026
 21
16428.271953631262
 31
0.0
  0
LINE
  5
185
  8
TLINE
 10
7481.4289064294026
 20
16428.271953631262
 30
0.0
 11
8204.1384513966514
 21
16428.271953631262
 31
0.0
  0
LINE
  5
186
  8
TLINE
 10
8204.1384513966514
 20
16428.271953631262
 30
0.0
 11
8382.2104109056418
 21
16498.271953631269
 31
0.0
  0
LINE
  5
187
  8
HONTAIGAIKEI
 10
6852.1244370179948
 20
17828.271953631262
 30
0.0
 11
7017.1244370179957
 21
17828.271953631262
 31
0.0
  0
LINE
  5
188
  8
HONTAIGAIKEI
 10
7017.1244370179957
 20
17866.965949253299
 30
0.0
 11
7017.1244370179957
 21
17828.271953631262
 31
0.0
  0
LINE
  5
189
  8
HONTAIGAIKEI
 10
6852.1244370179948
 20
17866.965949253299
 30
0.0
 11
7017.1244370179957
 21
17866.965949253299
 31
0.0
  0
LINE
  5
18A
  8
HONTAIGAIKEI
 10
7217.1244370179957
 20
17578.271953631262
 30
0.0
 11
7467.1244370180111
 21
17578.271953631262
 31
0.0
  0
LINE
  5
18B
  8
HONTAIGAIKEI
 10
7467.1244370180111
 20
17578.271953631262
 30
0.0
 11
7467.1244370179957
 21
17278.271953631262
 31
0.0
  0
ARC
  5
18C
  8
HONTAIGAIKEI
 10
11020.9224982249
 20
16609.758179790319
 30
0.0
 40
130.29652992132469
 50
242.45418078639401
 51
123.516011622943
  0
LINE
  5
18D
  8
HONTAIGAIKEI
 10
6837.1104332028935
 20
17008.950853029299
 30
0.0
 11
6880.5426420351623
 21
16848.271953631269
 31
0.0
  0
LINE
  5
18E
  8
HONTAIGAIKEI
 10
6915.288370470782
 20
17008.950853029299
 30
0.0
 11
6980.4366354314589
 21
16848.271953631262
 31
0.0
  0
LINE
  5
18F
  8
HONTAIGAIKEI
 10
6894.0087388786242
 20
16728.271953631262
 30
0.0
 11
6894.0087388786242
 21
16618.271953631262
 31
0.0
  0
LINE
  5
190
  8
HONTAIGAIKEI
 10
6993.3597849983671
 20
16728.271953631262
 30
0.0
 11
6993.3597849983671
 21
16618.271953631262
 31
0.0
  0
ARC
  5
191
  8
HONTAIGAIKEI
 10
6997.7869658467716
 20
17028.950853029299
 30
0.0
 40
20.0
 50
270.0
 51
0.0
  0
LINE
  5
192
  8
HONTAIGAIKEI
 10
6741.9926119775218
 20
17008.950853029299
 30
0.0
 11
6772.3984962029972
 21
16875.118359234199
 31
0.0
  0
LINE
  5
193
  8
HONTAIGAIKEI
 10
6772.3984962029972
 20
16875.118359234199
 30
0.0
 11
6873.2859412554708
 21
16875.118359234209
 31
0.0
  0
ARC
  5
194
  8
HONTAIGAIKEI
 10
6878.8073740406426
 20
16673.331826820351
 30
0.0
 40
82.521129178479896
 50
138.2585429311691
 51
221.85298083133279
  0
LINE
  5
195
  8
HONTAIGAIKEI
 10
6800.0766773638934
 20
16698.054572656631
 30
0.0
 11
6729.4218271976324
 21
16698.054572656631
 31
0.0
  0
LINE
  5
196
  8
HONTAIGAIKEI
 10
6709.4218271976324
 20
16678.054572656631
 30
0.0
 11
6709.4218271976324
 21
16669.464623326319
 31
0.0
  0
LINE
  5
197
  8
HONTAIGAIKEI
 10
6729.4218271976324
 20
16649.464623326319
 30
0.0
 11
6799.8131124881229
 21
16649.464623326319
 31
0.0
  0
ARC
  5
198
  8
HONTAIGAIKEI
 10
6729.4218271976324
 20
16678.054572656631
 30
0.0
 40
20.0
 50
90.0
 51
180.0
  0
ARC
  5
199
  8
HONTAIGAIKEI
 10
6729.4218271976324
 20
16669.464623326319
 30
0.0
 40
20.0
 50
180.0
 51
270.0
  0
ARC
  5
19A
  8
HONTAIGAIKEI
 10
6958.1043721535416
 20
16736.29658355553
 30
0.0
 40
231.858055208368
 50
143.2205727137754
 51
189.4935844241127
  0
LINE
  5
19B
  8
HONTAIGAIKEI
 10
6729.4218271976324
 20
16649.464623326319
 30
0.0
 11
6566.0276602547428
 21
16630.344653644559
 31
0.0
  0
LINE
  5
19C
  8
TLINE
 10
5288.1033895151959
 20
17298.271953631262
 30
0.0
 11
5288.1033895151959
 21
17267.842668185531
 31
0.0
  0
LINE
  5
19D
  8
TLINE
 10
5288.1033895151959
 20
17267.842668185531
 30
0.0
 11
5513.9508174977127
 21
17267.842668185531
 31
0.0
  0
LINE
  5
19E
  8
TLINE
 10
5513.9508174977127
 20
17267.842668185531
 30
0.0
 11
5513.9508174977127
 21
17298.271953631262
 31
0.0
  0
LINE
  5
19F
  8
HONTAIGAIKEI
 10
5476.2055041126623
 20
17163.694790074191
 30
0.0
 11
5245.1268170852891
 21
17163.694790074191
 31
0.0
  0
LINE
  5
1A0
  8
HONTAIGAIKEI
 10
5225.1268170852891
 20
17143.694790074191
 30
0.0
 11
5225.1268170852891
 21
17010.11499322196
 31
0.0
  0
LINE
  5
1A1
  8
HONTAIGAIKEI
 10
5245.1268170852891
 20
16990.11499322196
 30
0.0
 11
5436.0972015041516
 21
16990.11499322196
 31
0.0
  0
LINE
  5
1A2
  8
HONTAIGAIKEI
 10
5455.2523704305386
 20
17004.363514855318
 30
0.0
 11
5495.3606730390338
 21
17137.94331170755
 31
0.0
  0
ARC
  5
1A3
  8
HONTAIGAIKEI
 10
5245.1268170852891
 20
17143.694790074191
 30
0.0
 40
20.0
 50
90.0
 51
180.0
  0
ARC
  5
1A4
  8
HONTAIGAIKEI
 10
5245.1268170852891
 20
17010.11499322196
 30
0.0
 40
20.0
 50
180.0
 51
270.0
  0
ARC
  5
1A5
  8
HONTAIGAIKEI
 10
5436.0972015041516
 20
17010.11499322196
 30
0.0
 40
20.0
 50
270.0
 51
343.28723433522521
  0
ARC
  5
1A6
  8
HONTAIGAIKEI
 10
5476.2055041126623
 20
17143.694790074191
 30
0.0
 40
20.0
 50
343.28723433522521
 51
90.0
  0
LINE
  5
1A7
  8
HONTAIGAIKEI
 10
6477.0562810603042
 20
17228.271953631262
 30
0.0
 11
6000.1265296897936
 21
17199.928077415381
 31
0.0
  0
ARC
  5
1A8
  8
TLINE
 10
6591.0690750304102
 20
17111.620851018532
 30
0.0
 40
87.934447775434592
 50
129.1323262285824
 51
221.9367891332507
  0
LINE
  5
1A9
  8
TLINE
 10
6505.2350958491334
 20
17002.863976562719
 30
0.0
 11
6376.4028492254474
 21
16994.70805019555
 31
0.0
  0
ARC
  5
1AA
  8
TLINE
 10
6503.3396933692311
 20
17032.804040848529
 30
0.0
 40
30.0
 50
273.62236472996108
 51
41.936789133250727
  0
LINE
  5
1AB
  8
TLINE
 10
6505.8535410087961
 20
17089.923388794101
 30
0.0
 11
6644.1791025992306
 21
17089.923388794101
 31
0.0
  0
LINE
  5
1AC
  8
TLINE
 10
6481.9275263197378
 20
17121.569868777118
 30
0.0
 11
6175.8662963063016
 21
17104.865745951
 31
0.0
  0
LINE
  5
1AD
  8
TLINE
 10
5802.0156042345461
 20
17084.461829131091
 30
0.0
 11
5654.8001296758484
 21
17076.427144800669
 31
0.0
  0
ARC
  5
1AE
  8
TLINE
 10
5594.6439436206019
 20
17186.756425609448
 30
0.0
 40
125.6635067332364
 50
272.02881235438088
 51
358.42186501480489
  0
LINE
  5
1AF
  8
TLINE
 10
5632.9155298963051
 20
16971.824384303902
 30
0.0
 11
5533.5778626513957
 21
16981.57510951443
 31
0.0
  0
LINE
  5
1B0
  8
TLINE
 10
5982.695492742776
 20
17228.271953631262
 30
0.0
 11
5930.3179950896219
 21
17121.378427206859
 31
0.0
  0
LINE
  5
1B1
  8
TLINE
 10
5982.695492742776
 20
17228.271953631262
 30
0.0
 11
6044.6167454120559
 21
17127.58440841375
 31
0.0
  0
LINE
  5
1B2
  8
HONTAIGAIKEI
 10
5967.8676888270602
 20
17198.010938487361
 30
0.0
 11
5720.2597858855333
 21
17183.295631398891
 31
0.0
  0
LINE
  5
1B3
  8
TLINE
 10
5983.6873879801024
 20
17207.569641661281
 30
0.0
 11
5942.3280567449247
 21
17123.16231094917
 31
0.0
  0
LINE
  5
1B4
  8
TLINE
 10
5983.6873879801024
 20
17207.569641661281
 30
0.0
 11
6032.5879283299237
 21
17128.05452923405
 31
0.0
  0
LINE
  5
1B5
  8
TLINE
 10
6381.4496696259766
 20
17007.6559843
 30
0.0
 11
6481.9275263197378
 21
17121.569868777118
 31
0.0
  0
ARC
  5
1B6
  8
TLINE
 10
6632.2235086241753
 20
17219.891425640151
 30
0.0
 40
328.52914769735082
 50
180.33520312651621
 51
220.24197567964811
  0
LINE
  5
1B7
  8
TLINE
 10
6303.6999832205356
 20
17217.969410262769
 30
0.0
 11
6481.9275263197378
 21
17121.569868777118
 31
0.0
  0
CIRCLE
  5
1B8
  8
TLINE
 10
6197.9015013493372
 20
17162.39310239326
 30
0.0
 40
9.2094242213280655
  0
LINE
  5
1B9
  8
HONTAIGAIKEI
 10
5533.5778626513957
 20
16981.57510951443
 30
0.0
 11
5541.2978057610344
 21
16955.185458772339
 31
0.0
  0
LINE
  5
1BA
  8
HONTAIGAIKEI
 10
5557.0401967093821
 20
16941.101204679529
 30
0.0
 11
5597.6385872302599
 21
16933.984789817761
 31
0.0
  0
ARC
  5
1BB
  8
HONTAIGAIKEI
 10
5560.4933100895323
 20
16960.80084954901
 30
0.0
 40
20.0
 50
196.30613854947339
 51
260.05773869539701
  0
LINE
  5
1BC
  8
HONTAIGAIKEI
 10
5200.7013299562423
 20
16628.271953631262
 30
0.0
 11
5200.7013299562568
 21
16585.910201183251
 31
0.0
  0
LINE
  5
1BD
  8
HONTAIGAIKEI
 10
5190.7013299562568
 20
16575.910201183251
 30
0.0
 11
5105.0785369965488
 21
16575.910201183251
 31
0.0
  0
LINE
  5
1BE
  8
HONTAIGAIKEI
 10
5098.3920620321178
 20
16578.47440582902
 30
0.0
 11
5086.2314507231822
 21
16589.409567327621
 31
0.0
  0
LINE
  5
1BF
  8
HONTAIGAIKEI
 10
5084.8315526324468
 20
16602.728437627229
 30
0.0
 11
5103.4152140582619
 21
16628.271953631262
 31
0.0
  0
ARC
  5
1C0
  8
HONTAIGAIKEI
 10
5092.9179256876123
 20
16596.845362681859
 30
0.0
 40
10.0
 50
143.96300535213689
 51
228.0372364362818
  0
ARC
  5
1C1
  8
HONTAIGAIKEI
 10
5105.0785369965488
 20
16585.910201183251
 30
0.0
 40
10.0
 50
228.0372364362818
 51
270.0
  0
ARC
  5
1C2
  8
HONTAIGAIKEI
 10
5190.7013299562568
 20
16585.910201183251
 30
0.0
 40
10.0
 50
270.0
 51
0.0
  0
LINE
  5
1C3
  8
HONTAIGAIKEI
 10
6817.1244370179957
 20
17419.291310073721
 30
0.0
 11
6875.7673968769413
 21
17419.291310073721
 31
0.0
  0
LINE
  5
1C4
  8
HONTAIGAIKEI
 10
6875.7673968769413
 20
17419.291310073721
 30
0.0
 11
6940.9156848227331
 21
17267.408927093718
 31
0.0
  0
LINE
  5
1C5
  8
HONTAIGAIKEI
 10
6940.9156848227331
 20
17267.408927093718
 30
0.0
 11
6940.9156848227331
 21
17141.188490741479
 31
0.0
  0
LINE
  5
1C6
  8
HONTAIGAIKEI
 10
6817.1244370180102
 20
17614.568677155159
 30
0.0
 11
6822.1244370179957
 21
17614.568677155152
 31
0.0
  0
LINE
  5
1C7
  8
HONTAIGAIKEI
 10
6858.3944925485594
 20
17594.568677155159
 30
0.0
 11
6858.3944925485594
 21
17493.062762587819
 31
0.0
  0
LINE
  5
1C8
  8
HONTAIGAIKEI
 10
6858.3944925485594
 20
17493.062762587819
 30
0.0
 11
6889.1996013602657
 21
17493.062762587819
 31
0.0
  0
LINE
  5
1C9
  8
HONTAIGAIKEI
 10
6919.1996013602657
 20
17463.062762587819
 30
0.0
 11
6919.1996013602657
 21
17318.03635889999
 31
0.0
  0
LINE
  5
1CA
  8
HONTAIGAIKEI
 10
6817.1244370179957
 20
17380.235844840769
 30
0.0
 11
6892.5198117714781
 21
17380.235844840769
 31
0.0
  0
ARC
  5
1CB
  8
HONTAIGAIKEI
 10
6889.1996013602657
 20
17463.062762587819
 30
0.0
 40
30.0
 50
0.0
 51
90.0
  0
CIRCLE
  5
1CC
  8
TLINE
 10
6887.7112333916921
 20
17334.6711319926
 30
0.0
 40
10.848746025360009
  0
ARC
  5
1CD
  8
HONTAIGAIKEI
 10
6838.3944925485594
 20
17594.568677155159
 30
0.0
 40
20.0
 50
0.0
 51
90.0
  0
LINE
  5
1CE
  8
HONTAIGAIKEI
 10
6852.1244370179948
 20
18028.271953631262
 30
0.0
 11
6852.1244370179948
 21
17644.568677155152
 31
0.0
  0
ARC
  5
1CF
  8
HONTAIGAIKEI
 10
6822.1244370179957
 20
17644.568677155152
 30
0.0
 40
30.0
 50
270.0
 51
0.0
  0
LINE
  5
1D0
  8
HONTAIGAIKEI
 10
6822.1244370179957
 20
17614.568677155152
 30
0.0
 11
6838.3944925485594
 21
17614.568677155159
 31
0.0
  0
LINE
  5
1D1
  8
HONTAIGAIKEI
 10
6852.1244370179948
 20
18028.271953631262
 30
0.0
 11
6742.2159956441501
 21
18721.752122843998
 31
0.0
  0
ARC
  5
1D2
  8
HONTAIGAIKEI
 10
6594.0651210137767
 20
18698.271953631251
 30
0.0
 40
150.0
 50
9.0058008344272782
 51
90.0
  0
LINE
  5
1D3
  8
TLINE
 10
11767.644279448899
 20
17396.944971369139
 30
0.0
 11
11676.43661623134
 21
17396.944971369139
 31
0.0
  0
LINE
  5
1D4
  8
TLINE
 10
11676.43661623134
 20
17396.944971369139
 30
0.0
 11
11676.43661623134
 21
17054.124719717842
 31
0.0
  0
LINE
  5
1D5
  8
TLINE
 10
11676.43661623134
 20
17054.124719717842
 30
0.0
 11
11749.609888486941
 21
17054.124719717842
 31
0.0
  0
LINE
  5
1D6
  8
TLINE
 10
11767.644279448899
 20
17349.21050931589
 30
0.0
 11
11749.868820714681
 21
17349.21050931589
 31
0.0
  0
LINE
  5
1D7
  8
TLINE
 10
11624.317978363049
 20
17349.21050931589
 30
0.0
 11
11624.317978363049
 21
17075.822211768551
 31
0.0
  0
LINE
  5
1D8
  8
TLINE
 10
11624.317978363049
 20
17075.822211768551
 30
0.0
 11
11676.43661623134
 21
17075.822211768551
 31
0.0
  0
LINE
  5
1D9
  8
TLINE
 10
11719.868820714681
 20
17319.21050931589
 30
0.0
 11
11719.868820714681
 21
17090.822211768551
 31
0.0
  0
LINE
  5
1DA
  8
TLINE
 10
11676.43661623134
 20
17349.21050931589
 30
0.0
 11
11624.317978363049
 21
17349.21050931589
 31
0.0
  0
LINE
  5
1DB
  8
TLINE
 10
11734.868820714681
 20
17075.822211768551
 30
0.0
 11
11747.47072207878
 21
17075.82221176854
 31
0.0
  0
LINE
  5
1DC
  8
TLINE
 10
11707.92498419993
 20
17054.124719717842
 30
0.0
 11
11707.92498419993
 21
16798.271953631262
 31
0.0
  0
LINE
  5
1DD
  8
TLINE
 10
11692.723706997
 20
16598.271953631262
 30
0.0
 11
11692.723706997
 21
16567.608118993539
 31
0.0
  0
LINE
  5
1DE
  8
TLINE
 10
11692.723706997
 20
16567.608118993539
 30
0.0
 11
11767.644279448899
 21
16567.608118993539
 31
0.0
  0
LINE
  5
1DF
  8
TLINE
 10
11710.096611325371
 20
16567.608118993539
 30
0.0
 11
11665.935720674161
 21
16498.271953631262
 31
0.0
  0
LINE
  5
1E0
  8
HONTAIGAIKEI
 10
11634.090225310751
 20
16448.271953631262
 30
0.0
 11
11767.644279448899
 21
16448.271953631262
 31
0.0
  0
LINE
  5
1E1
  8
TLINE
 10
11825.19194757243
 20
16567.608118993539
 30
0.0
 11
11869.35283822366
 21
16498.271953631262
 31
0.0
  0
LINE
  5
1E2
  8
TLINE
 10
11842.564851900799
 20
16567.608118993539
 30
0.0
 11
11767.644279448899
 21
16567.608118993539
 31
0.0
  0
LINE
  5
1E3
  8
TLINE
 10
11842.564851900799
 20
16598.271953631262
 30
0.0
 11
11842.564851900799
 21
16567.608118993539
 31
0.0
  0
LINE
  5
1E4
  8
TLINE
 10
11827.363574697871
 20
17054.124719717842
 30
0.0
 11
11827.363574697871
 21
16798.271953631262
 31
0.0
  0
LINE
  5
1E5
  8
TLINE
 10
11800.4197381831
 20
17075.822211768551
 30
0.0
 11
11787.817836819
 21
17075.822211768551
 31
0.0
  0
LINE
  5
1E6
  8
TLINE
 10
11858.851942666461
 20
17349.21050931589
 30
0.0
 11
11910.970580534749
 21
17349.21050931589
 31
0.0
  0
LINE
  5
1E7
  8
TLINE
 10
11815.41973818312
 20
17319.21050931589
 30
0.0
 11
11815.419738183111
 21
17090.822211768551
 31
0.0
  0
LINE
  5
1E8
  8
TLINE
 10
11910.970580534749
 20
17075.822211768551
 30
0.0
 11
11858.851942666461
 21
17075.822211768551
 31
0.0
  0
LINE
  5
1E9
  8
TLINE
 10
11767.644279448899
 20
17349.21050931589
 30
0.0
 11
11785.41973818312
 21
17349.21050931589
 31
0.0
  0
LINE
  5
1EA
  8
TLINE
 10
11858.851942666461
 20
17054.124719717842
 30
0.0
 11
11785.678670410851
 21
17054.124719717842
 31
0.0
  0
LINE
  5
1EB
  8
TLINE
 10
11858.851942666461
 20
17396.944971369139
 30
0.0
 11
11858.851942666461
 21
17054.124719717842
 31
0.0
  0
LINE
  5
1EC
  8
TLINE
 10
11767.644279448899
 20
17396.944971369139
 30
0.0
 11
11858.851942666461
 21
17396.944971369139
 31
0.0
  0
LINE
  5
1ED
  8
TLINE
 10
11910.970580534749
 20
17349.21050931589
 30
0.0
 11
11910.970580534749
 21
17075.822211768551
 31
0.0
  0
ARC
  5
1EE
  8
TLINE
 10
11767.644279448899
 20
17136.575209968869
 30
0.0
 40
41.225234896359318
 50
303.53608797589379
 51
236.46391202410609
  0
ARC
  5
1EF
  8
TLINE
 10
11767.644279448899
 20
17015.06931585987
 30
0.0
 40
14.11546364019159
 50
185.63062274072709
 51
354.36937725927288
  0
LINE
  5
1F0
  8
TLINE
 10
11744.868899518
 20
17102.212409424352
 30
0.0
 11
11753.59692146779
 21
17013.684379930579
 31
0.0
  0
LINE
  5
1F1
  8
TLINE
 10
11790.419659379781
 20
17102.212409424341
 30
0.0
 11
11781.691637430011
 21
17013.684379930579
 31
0.0
  0
LINE
  5
1F2
  8
HONTAIGAIKEI
 10
9122.1244370179957
 20
17758.271953631262
 30
0.0
 11
9122.1244370179957
 21
17498.271953631262
 31
0.0
  0
LINE
  5
1F3
  8
TLINE
 10
9042.1244370179957
 20
17758.271953631262
 30
0.0
 11
11947.12443701799
 21
17758.271953631262
 31
0.0
  0
LINE
  5
1F4
  8
HONTAIGAIKEI
 10
9042.1244370179957
 20
17498.271953631262
 30
0.0
 11
9122.1244370179957
 21
17498.271953631262
 31
0.0
  0
LINE
  5
1F5
  8
HONTAIGAIKEI
 10
9042.1244370179957
 20
17498.271953631262
 30
0.0
 11
9042.1244370179957
 21
17478.271953631262
 31
0.0
  0
LINE
  5
1F6
  8
TLINE
 10
9119.0448831006106
 20
17443.271953631262
 30
0.0
 11
9790.2779649832992
 21
17443.271953631262
 31
0.0
  0
LINE
  5
1F7
  8
TLINE
 10
9649.1457111298405
 20
17363.271953631262
 30
0.0
 11
10102.402098547491
 21
17363.271953631262
 31
0.0
  0
LINE
  5
1F8
  8
TLINE
 10
9359.8659381696671
 20
17333.298173402862
 30
0.0
 11
9629.1457111298423
 21
17333.298173402862
 31
0.0
  0
LINE
  5
1F9
  8
TLINE
 10
9629.1457111298423
 20
17333.298173402862
 30
0.0
 11
9629.1457111298423
 21
17343.271953631262
 31
0.0
  0
LINE
  5
1FA
  8
TLINE
 10
9359.8659381696671
 20
17333.298173402862
 30
0.0
 11
9359.8659381696671
 21
17343.271953631262
 31
0.0
  0
LINE
  5
1FB
  8
TLINE
 10
9328.3775702011098
 20
17363.271953631262
 30
0.0
 11
9305.8379536284374
 21
17388.911399294149
 31
0.0
  0
ARC
  5
1FC
  8
TLINE
 10
9185.6701229912742
 20
17283.271953631262
 30
0.0
 40
160.0
 50
41.318677691661371
 51
90.0
  0
LINE
  5
1FD
  8
TLINE
 10
9078.6423286947738
 20
17468.271953631262
 30
0.0
 11
9078.6423286947738
 21
17404.899876711879
 31
0.0
  0
LINE
  5
1FE
  8
TLINE
 10
9078.6423286947738
 20
17404.899876711879
 30
0.0
 11
9109.0448831006124
 21
17404.899876711879
 31
0.0
  0
LINE
  5
1FF
  8
TLINE
 10
9109.0448831006124
 20
17404.899876711879
 30
0.0
 11
9109.0448831006124
 21
17433.271953631262
 31
0.0
  0
ARC
  5
200
  8
TLINE
 10
9790.2779649832992
 20
16908.027349667191
 30
0.0
 40
535.24460396406721
 50
58.269974821204393
 51
90.0
  0
ARC
  5
201
  8
TLINE
 10
9790.2779649832992
 20
16908.027349667191
 30
0.0
 40
570.24460396406721
 50
56.143059130597408
 51
90.0
  0
ARC
  5
202
  8
TLINE
 10
10102.402098547491
 20
17373.271953631262
 30
0.0
 40
10.0
 50
270.0
 51
56.143059130597408
  0
LINE
  5
203
  8
TLINE
 10
9398.7349839258113
 20
17333.298173402862
 30
0.0
 11
9398.7349839258113
 21
17278.271953631262
 31
0.0
  0
LINE
  5
204
  8
TLINE
 10
9585.5138901102073
 20
17333.298173402862
 30
0.0
 11
9585.5138901102073
 21
17278.271953631262
 31
0.0
  0
ARC
  5
205
  8
TLINE
 10
9088.642328694772
 20
17468.271953631262
 30
0.0
 40
10.0
 50
90.0
 51
180.0
  0
ARC
  5
206
  8
TLINE
 10
9119.0448831006106
 20
17433.271953631262
 30
0.0
 40
10.0
 50
90.0
 51
180.0
  0
ARC
  5
207
  8
TLINE
 10
9649.1457111298405
 20
17343.271953631262
 30
0.0
 40
20.0
 50
90.0
 51
180.0
  0
LINE
  5
208
  8
TLINE
 10
9328.3775702011098
 20
17363.271953631262
 30
0.0
 11
9339.8659381696671
 21
17363.271953631262
 31
0.0
  0
ARC
  5
209
  8
TLINE
 10
9339.8659381696671
 20
17343.271953631262
 30
0.0
 40
20.0
 50
0.0
 51
90.0
  0
ARC
  5
20A
  8
HONTAIGAIKEI
 10
5284.3946450137191
 20
16594.607090292538
 30
0.0
 40
60.75297774199862
 50
261.77970317450212
 51
33.650603522797752
  0
LINE
  5
20B
  8
HONTAIGAIKEI
 10
5275.7082116287393
 20
16628.271953631262
 30
0.0
 11
5275.7082116287393
 21
16534.47831033179
 31
0.0
  0
LINE
  5
20C
  8
HONTAIGAIKEI
 10
5249.6488739153756
 20
16628.271953631262
 30
0.0
 11
5249.6488739153756
 21
16534.47831033179
 31
0.0
  0
LINE
  5
20D
  8
HONTAIGAIKEI
 10
5275.7082116287393
 20
16534.47831033179
 30
0.0
 11
5249.6488739153756
 21
16534.47831033179
 31
0.0
  0
LINE
  5
20E
  8
HONTAIGAIKEI
 10
5354.7555516703178
 20
16628.271953631269
 30
0.0
 11
5354.7555516703178
 21
16562.0608726748
 31
0.0
  0
LINE
  5
20F
  8
HONTAIGAIKEI
 10
5354.7555516703178
 20
16562.0608726748
 30
0.0
 11
5374.3000455657348
 21
16562.0608726748
 31
0.0
  0
LINE
  5
210
  8
HONTAIGAIKEI
 10
5374.3000455657348
 20
16562.0608726748
 30
0.0
 11
5374.3000455657348
 21
16628.271953631269
 31
0.0
  0
LINE
  5
211
  8
HONTAIGAIKEI
 10
4985.5816445492128
 20
17458.271953631262
 30
0.0
 11
4985.5816445492128
 21
17357.711929163768
 31
0.0
  0
ARC
  5
212
  8
HONTAIGAIKEI
 10
4896.1463733357714
 20
17322.991941397511
 30
0.0
 40
24.719987766260601
 50
90.0
 51
270.0
  0
LINE
  5
213
  8
HONTAIGAIKEI
 10
4896.1463733357559
 20
17347.711929163768
 30
0.0
 11
4975.5816445492128
 21
17347.711929163768
 31
0.0
  0
LINE
  5
214
  8
HONTAIGAIKEI
 10
4871.3813155731523
 20
17571.628707802331
 30
0.0
 11
5119.8760522796701
 21
17571.628707802331
 31
0.0
  0
LINE
  5
215
  8
HONTAIGAIKEI
 10
5139.8760522796692
 20
17551.628707802342
 30
0.0
 11
5139.8760522796838
 21
17331.907056565811
 31
0.0
  0
LINE
  5
216
  8
HONTAIGAIKEI
 10
5129.8760522796838
 20
17321.907056565811
 30
0.0
 11
4871.4502031839247
 21
17321.907056565811
 31
0.0
  0
ARC
  5
217
  8
HONTAIGAIKEI
 10
5119.8760522796701
 20
17551.628707802342
 30
0.0
 40
20.0
 50
0.0
 51
90.0
  0
ARC
  5
218
  8
HONTAIGAIKEI
 10
4965.5816445492128
 20
17458.271953631262
 30
0.0
 40
20.0
 50
0.0
 51
90.0
  0
ARC
  5
219
  8
HONTAIGAIKEI
 10
4975.5816445492128
 20
17357.711929163768
 30
0.0
 40
10.0
 50
270.0
 51
0.0
  0
ARC
  5
21A
  8
HONTAIGAIKEI
 10
5129.8760522796838
 20
17331.907056565811
 30
0.0
 40
10.0
 50
270.0
 51
0.0
  0
ARC
  5
21B
  8
HONTAIGAIKEI
 10
4887.645698804019
 20
17544.35070486505
 30
0.0
 40
20.0
 50
171.77383621728569
 51
204.79986573859421
  0
LINE
  5
21C
  8
TLINE
 10
11947.12443701799
 20
17758.271953631262
 30
0.0
 11
11947.124437017959
 21
16798.271953631262
 31
0.0
  0
LINE
  5
21D
  8
TLINE
 10
5449.5743841795083
 20
18848.271953631262
 30
0.0
 11
5399.3391406012424
 21
18949.363885136441
 31
0.0
  0
LINE
  5
21E
  8
TLINE
 10
5683.3392549477321
 20
18923.173363371479
 30
0.0
 11
5722.5258632252699
 21
18848.271953631262
 31
0.0
  0
LINE
  5
21F
  8
HONTAIGAIKEI
 10
11222.104967687061
 20
16983.64361171595
 30
0.0
 11
11222.10496768705
 21
16836.10062485444
 31
0.0
  0
LINE
  5
220
  8
HONTAIGAIKEI
 10
11222.10496768705
 20
16836.10062485444
 30
0.0
 11
11156.956604624451
 21
16836.10062485444
 31
0.0
  0
LINE
  5
221
  8
HONTAIGAIKEI
 10
11156.956604624451
 20
16836.10062485444
 30
0.0
 11
11156.956604624451
 21
16983.64361171595
 31
0.0
  0
LINE
  5
222
  8
HONTAIGAIKEI
 10
11156.956604624451
 20
16983.64361171595
 30
0.0
 11
11222.104967687061
 21
16983.64361171595
 31
0.0
  0
LINE
  5
223
  8
HONTAIGAIKEI
 10
11252.41433968373
 20
16935.909108746051
 30
0.0
 11
11346.97262599862
 21
16935.909108746051
 31
0.0
  0
LINE
  5
224
  8
HONTAIGAIKEI
 10
11346.97262599862
 20
16935.909108746051
 30
0.0
 11
11346.97262599862
 21
16916.381365900401
 31
0.0
  0
LINE
  5
225
  8
HONTAIGAIKEI
 10
11346.97262599862
 20
16916.381365900401
 30
0.0
 11
11252.41433968373
 21
16916.381365900412
 31
0.0
  0
LINE
  5
226
  8
HONTAIGAIKEI
 10
11346.97262599862
 20
16771.008128243961
 30
0.0
 11
11252.41433968373
 21
16771.008128243971
 31
0.0
  0
LINE
  5
227
  8
HONTAIGAIKEI
 10
11346.97262599862
 20
16790.535871089611
 30
0.0
 11
11346.97262599862
 21
16771.008128243961
 31
0.0
  0
LINE
  5
228
  8
HONTAIGAIKEI
 10
11252.41433968373
 20
16790.535871089611
 30
0.0
 11
11346.97262599862
 21
16790.535871089611
 31
0.0
  0
LINE
  5
229
  8
HONTAIGAIKEI
 10
11299.197317498019
 20
16935.909108746051
 30
0.0
 11
11299.197317498019
 21
16946.757854771411
 31
0.0
  0
LINE
  5
22A
  8
HONTAIGAIKEI
 10
11299.197317498019
 20
16946.757854771411
 30
0.0
 11
11338.28634284727
 21
16946.757854771411
 31
0.0
  0
LINE
  5
22B
  8
HONTAIGAIKEI
 10
11338.28634284727
 20
16946.757854771411
 30
0.0
 11
11338.28634284727
 21
16935.909108746051
 31
0.0
  0
LINE
  5
22C
  8
HONTAIGAIKEI
 10
11305.1692545346
 20
16906.381365900412
 30
0.0
 11
11305.1692545346
 21
16800.535871089622
 31
0.0
  0
LINE
  5
22D
  8
HONTAIGAIKEI
 10
11332.31440581069
 20
16906.381365900412
 30
0.0
 11
11332.314405810699
 21
16800.5358710896
 31
0.0
  0
ARC
  5
22E
  8
HONTAIGAIKEI
 10
11318.741830172639
 20
16747.14086652984
 30
0.0
 40
6.5092476152203744
 50
189.1372199731625
 51
350.86278002683753
  0
LINE
  5
22F
  8
HONTAIGAIKEI
 10
11325.168481015249
 20
16746.10720146633
 30
0.0
 11
11329.17355592742
 21
16771.008128243961
 31
0.0
  0
LINE
  5
230
  8
HONTAIGAIKEI
 10
11312.315179330049
 20
16746.10720146633
 30
0.0
 11
11308.31010441788
 21
16771.008128243971
 31
0.0
  0
LINE
  5
231
  8
HONTAIGAIKEI
 10
11289.480056058999
 20
16916.381365900412
 30
0.0
 11
11289.480056058999
 21
16906.381365900412
 31
0.0
  0
LINE
  5
232
  8
HONTAIGAIKEI
 10
11289.480056058999
 20
16800.535871089611
 30
0.0
 11
11289.480056058979
 21
16790.535871089611
 31
0.0
  0
LINE
  5
233
  8
HONTAIGAIKEI
 10
11318.741830172639
 20
16906.381365900412
 30
0.0
 11
11289.480056058999
 21
16906.381365900412
 31
0.0
  0
LINE
  5
234
  8
HONTAIGAIKEI
 10
11289.480056058999
 20
16800.535871089611
 30
0.0
 11
11318.741830172639
 21
16800.535871089622
 31
0.0
  0
LINE
  5
235
  8
HONTAIGAIKEI
 10
11318.741830172639
 20
16906.381365900412
 30
0.0
 11
11348.00360428631
 21
16906.381365900412
 31
0.0
  0
LINE
  5
236
  8
HONTAIGAIKEI
 10
11348.00360428631
 20
16916.381365900412
 30
0.0
 11
11348.00360428631
 21
16906.381365900412
 31
0.0
  0
LINE
  5
237
  8
HONTAIGAIKEI
 10
11348.00360428631
 20
16800.535871089611
 30
0.0
 11
11348.00360428631
 21
16790.535871089611
 31
0.0
  0
LINE
  5
238
  8
HONTAIGAIKEI
 10
11348.00360428631
 20
16800.535871089611
 30
0.0
 11
11318.741830172639
 21
16800.535871089622
 31
0.0
  0
LINE
  5
239
  8
DOUSEN
 62
     2
 10
11972.124437017979
 20
17328.271953631262
 30
0.0
 11
20872.124437017999
 21
17328.271953631262
 31
0.0
  0
LINE
  5
23A
  8
HONTAIGAIKEI
 62
     2
 10
20972.12443701801
 20
16542.97723378268
 30
0.0
 11
20972.124437017999
 21
16733.201808116231
 31
0.0
  0
LINE
  5
23B
  8
HONTAIGAIKEI
 10
9122.1244370179957
 20
17578.271953631262
 30
0.0
 11
11972.12443701799
 21
17578.271953631262
 31
0.0
  0
LINE
  5
23C
  8
DOUSEN
 62
     2
 10
11972.124437017979
 20
17078.271953631262
 30
0.0
 11
16666.76955734806
 21
17078.271953631262
 31
0.0
  0
LINE
  5
23D
  8
CENTER
 10
19872.12443701801
 20
15904.949234381
 30
0.0
 11
19872.124437017988
 21
17251.594672881511
 31
0.0
  0
LINE
  5
23E
  8
CENTER
 10
18522.12443701801
 20
15904.949234381
 30
0.0
 11
18522.12443701801
 21
17251.594672881511
 31
0.0
  0
LINE
  5
23F
  8
CENTER
 10
17172.124437018021
 20
15904.949234381011
 30
0.0
 11
17172.124437017988
 21
17251.594672881511
 31
0.0
  0
LINE
  5
240
  8
CENTER
 62
     6
 10
16498.801717767761
 20
16578.271953631262
 30
0.0
 11
17845.447156268259
 21
16578.271953631262
 31
0.0
  0
CIRCLE
  5
241
  8
HONTAIGAIKEI
 10
19872.12443701801
 20
16578.271953631262
 30
0.0
 40
550.0
  0
CIRCLE
  5
242
  8
HONTAIGAIKEI
 10
18522.12443701801
 20
16578.271953631262
 30
0.0
 40
550.0
  0
CIRCLE
  5
243
  8
HONTAIGAIKEI
 10
17172.12443701801
 20
16578.271953631262
 30
0.0
 40
550.0
  0
LINE
  5
244
  8
DOUSEN
 62
     2
 10
16931.656667983159
 20
17238.271953631262
 30
0.0
 11
17412.592206052861
 21
17238.271953631262
 31
0.0
  0
LINE
  5
245
  8
HONTAIGAIKEI
 10
16666.76955734806
 20
17078.271953631262
 30
0.0
 11
16931.656667983149
 21
17238.271953631262
 31
0.0
  0
LINE
  5
246
  8
HONTAIGAIKEI
 10
18016.76955734806
 20
17078.271953631262
 30
0.0
 11
18281.656667983149
 21
17238.271953631262
 31
0.0
  0
LINE
  5
247
  8
HONTAIGAIKEI
 10
19366.76955734806
 20
17078.271953631262
 30
0.0
 11
19631.656667983149
 21
17238.271953631262
 31
0.0
  0
LINE
  5
248
  8
HONTAIGAIKEI
 10
17677.479316687939
 20
17078.271953631262
 30
0.0
 11
17412.592206052861
 21
17238.271953631262
 31
0.0
  0
LINE
  5
249
  8
HONTAIGAIKEI
 10
19027.479316687939
 20
17078.271953631262
 30
0.0
 11
18762.59220605285
 21
17238.271953631262
 31
0.0
  0
LINE
  5
24A
  8
HONTAIGAIKEI
 10
20377.479316687939
 20
17078.271953631262
 30
0.0
 11
20112.592206052861
 21
17238.271953631262
 31
0.0
  0
LINE
  5
24B
  8
DOUSEN
 62
     2
 10
17677.479316687939
 20
17078.271953631262
 30
0.0
 11
18016.76955734806
 21
17078.271953631262
 31
0.0
  0
LINE
  5
24C
  8
DOUSEN
 62
     2
 10
19027.479316687961
 20
17078.271953631251
 30
0.0
 11
19366.769557348049
 21
17078.271953631262
 31
0.0
  0
LINE
  5
24D
  8
DOUSEN
 62
     2
 10
20377.479316687939
 20
17078.271953631262
 30
0.0
 11
20872.12443701801
 21
17078.271953631262
 31
0.0
  0
LINE
  5
24E
  8
DOUSEN
 62
     2
 10
19631.656667983149
 20
17238.271953631262
 30
0.0
 11
20112.592206052839
 21
17238.271953631262
 31
0.0
  0
LINE
  5
24F
  8
DOUSEN
 62
     2
 10
18281.656667983149
 20
17238.271953631262
 30
0.0
 11
18762.59220605285
 21
17238.271953631262
 31
0.0
  0
CIRCLE
  5
250
  8
TLINE
 10
17172.12443701801
 20
16578.271953631262
 30
0.0
 40
280.0
  0
CIRCLE
  5
251
  8
TLINE
 10
18522.12443701801
 20
16578.271953631262
 30
0.0
 40
280.0
  0
CIRCLE
  5
252
  8
TLINE
 10
19872.12443701801
 20
16578.271953631262
 30
0.0
 40
280.0
  0
CIRCLE
  5
253
  8
TLINE
 10
17172.12443701801
 20
16578.271953631262
 30
0.0
 40
240.0
  0
CIRCLE
  5
254
  8
TLINE
 10
18522.12443701801
 20
16578.271953631262
 30
0.0
 40
240.0
  0
CIRCLE
  5
255
  8
TLINE
 10
19872.12443701801
 20
16578.271953631262
 30
0.0
 40
240.0
  0
LINE
  5
256
  8
0
 62
     2
 10
20872.124437017999
 20
16860.207882572678
 30
0.0
 11
20872.124437017999
 21
17328.271953631262
 31
0.0
  0
LINE
  5
257
  8
TLINE
 10
20652.12443701801
 20
16938.271953631262
 30
0.0
 11
20652.124437017999
 21
17078.271953631262
 31
0.0
  0
LINE
  5
258
  8
TLINE
 10
20287.936894743849
 20
16938.271953631262
 30
0.0
 11
20652.12443701801
 21
16938.271953631262
 31
0.0
  0
LINE
  5
259
  8
TLINE
 10
18937.936894743849
 20
16938.271953631251
 30
0.0
 11
19456.311979292172
 21
16938.271953631262
 31
0.0
  0
LINE
  5
25A
  8
TLINE
 10
16472.124437017988
 20
16938.271953631251
 30
0.0
 11
16756.311979292172
 21
16938.271953631251
 31
0.0
  0
LINE
  5
25B
  8
TLINE
 10
11472.12443701799
 20
16448.271953631262
 30
0.0
 11
16472.12443701801
 21
16448.271953631262
 31
0.0
  0
LINE
  5
25C
  8
TLINE
 10
11622.12443701799
 20
16598.271953631262
 30
0.0
 11
12142.12443701799
 21
16598.271953631262
 31
0.0
  0
LINE
  5
25D
  8
TLINE
 10
11622.12443701799
 20
16748.27195363128
 30
0.0
 11
16322.124437018019
 21
16748.271953631262
 31
0.0
  0
LINE
  5
25E
  8
TLINE
 10
12192.12443701797
 20
16898.271953631262
 30
0.0
 11
15142.124437017979
 21
16898.271953631262
 31
0.0
  0
LINE
  5
25F
  8
TLINE
 10
11622.12443701799
 20
16498.271953631262
 30
0.0
 11
16322.124437018019
 21
16498.271953631262
 31
0.0
  0
LINE
  5
260
  8
TLINE
 10
11622.12443701799
 20
16648.271953631262
 30
0.0
 11
12142.124437017979
 21
16648.271953631262
 31
0.0
  0
LINE
  5
261
  8
TLINE
 10
11472.12443701799
 20
16798.271953631262
 30
0.0
 11
16472.12443701801
 21
16798.271953631262
 31
0.0
  0
LINE
  5
262
  8
TLINE
 10
12192.12443701797
 20
16948.271953631262
 30
0.0
 11
15142.124437017959
 21
16948.271953631269
 31
0.0
  0
LINE
  5
263
  8
HONTAIGAIKEI
 62
     2
 10
16322.12443701799
 20
16448.271953631262
 30
0.0
 11
16322.124437017979
 21
16798.271953631269
 31
0.0
  0
LINE
  5
264
  8
HONTAIGAIKEI
 62
     2
 10
16472.124437017988
 20
16448.271953631262
 30
0.0
 11
16472.124437017988
 21
16798.271953631262
 31
0.0
  0
LINE
  5
265
  8
HONTAIGAIKEI
 10
11472.12443701799
 20
16798.271953631262
 30
0.0
 11
11472.12443701799
 21
16448.271953631262
 31
0.0
  0
LINE
  5
266
  8
HONTAIGAIKEI
 10
11622.12443701799
 20
16798.271953631262
 30
0.0
 11
11622.12443701799
 21
16448.271953631262
 31
0.0
  0
LINE
  5
267
  8
TLINE
 10
16242.12443701799
 20
16498.271953631269
 30
0.0
 11
16242.124437017979
 21
16598.271953631262
 31
0.0
  0
LINE
  5
268
  8
TLINE
 10
16192.12443701799
 20
16498.271953631269
 30
0.0
 11
16192.124437017979
 21
16598.271953631262
 31
0.0
  0
LINE
  5
269
  8
TLINE
 10
15142.12443701799
 20
16498.271953631269
 30
0.0
 11
15142.124437017979
 21
16748.271953631262
 31
0.0
  0
LINE
  5
26A
  8
TLINE
 10
15192.12443701799
 20
16498.271953631269
 30
0.0
 11
15192.124437017979
 21
16748.271953631262
 31
0.0
  0
LINE
  5
26B
  8
TLINE
 10
14442.12443701799
 20
16498.271953631262
 30
0.0
 11
14442.12443701799
 21
16748.271953631269
 31
0.0
  0
LINE
  5
26C
  8
TLINE
 10
14392.12443701799
 20
16498.271953631262
 30
0.0
 11
14392.12443701799
 21
16748.271953631269
 31
0.0
  0
LINE
  5
26D
  8
TLINE
 10
13692.12443701799
 20
16498.271953631262
 30
0.0
 11
13692.12443701799
 21
16748.271953631269
 31
0.0
  0
LINE
  5
26E
  8
TLINE
 10
13642.12443701801
 20
16498.271953631262
 30
0.0
 11
13642.12443701799
 21
16748.271953631269
 31
0.0
  0
LINE
  5
26F
  8
TLINE
 10
12942.12443701799
 20
16498.271953631262
 30
0.0
 11
12942.12443701799
 21
16748.271953631269
 31
0.0
  0
LINE
  5
270
  8
TLINE
 10
12892.12443701799
 20
16498.271953631262
 30
0.0
 11
12892.12443701799
 21
16748.271953631269
 31
0.0
  0
LINE
  5
271
  8
TLINE
 10
12192.12443701799
 20
16498.271953631262
 30
0.0
 11
12192.124437017979
 21
16748.27195363128
 31
0.0
  0
LINE
  5
272
  8
TLINE
 10
12142.12443701799
 20
16498.271953631262
 30
0.0
 11
12142.124437017979
 21
16748.27195363128
 31
0.0
  0
LINE
  5
273
  8
TLINE
 10
15192.124437017979
 20
16648.271953631262
 30
0.0
 11
16322.124437018019
 21
16648.271953631262
 31
0.0
  0
LINE
  5
274
  8
TLINE
 10
15192.12443701799
 20
16598.271953631262
 30
0.0
 11
16322.124437018019
 21
16598.271953631262
 31
0.0
  0
LINE
  5
275
  8
TLINE
 10
12142.124437017979
 20
16798.271953631269
 30
0.0
 11
12142.124437017959
 21
17078.271953631211
 31
0.0
  0
LINE
  5
276
  8
TLINE
 10
12192.12443701797
 20
16798.271953631269
 30
0.0
 11
12192.12443701797
 21
17078.271953631211
 31
0.0
  0
LINE
  5
277
  8
TLINE
 10
12892.124437017979
 20
16798.271953631262
 30
0.0
 11
12892.124437017959
 21
16898.271953631262
 31
0.0
  0
LINE
  5
278
  8
TLINE
 10
12942.124437017979
 20
16798.271953631262
 30
0.0
 11
12942.124437017959
 21
16898.271953631262
 31
0.0
  0
LINE
  5
279
  8
TLINE
 10
13642.124437017959
 20
16798.271953631262
 30
0.0
 11
13642.124437017959
 21
16898.271953631262
 31
0.0
  0
LINE
  5
27A
  8
TLINE
 10
13692.124437017979
 20
16798.271953631262
 30
0.0
 11
13692.124437017979
 21
16898.271953631262
 31
0.0
  0
LINE
  5
27B
  8
TLINE
 10
14392.12443701799
 20
16798.271953631262
 30
0.0
 11
14392.12443701799
 21
16898.271953631262
 31
0.0
  0
LINE
  5
27C
  8
TLINE
 10
14442.12443701799
 20
16798.271953631262
 30
0.0
 11
14442.12443701799
 21
16898.271953631262
 31
0.0
  0
LINE
  5
27D
  8
HONTAIGAIKEI
 62
     2
 10
15142.124437017959
 20
16798.271953631262
 30
0.0
 11
15142.124437017959
 21
17078.271953631211
 31
0.0
  0
LINE
  5
27E
  8
HONTAIGAIKEI
 62
     2
 10
15192.124437017979
 20
16798.271953631262
 30
0.0
 11
15192.124437017959
 21
17078.271953631211
 31
0.0
  0
LINE
  5
27F
  8
TLINE
 10
16192.124437017959
 20
16798.271953631262
 30
0.0
 11
16192.124437017959
 21
17078.271953631262
 31
0.0
  0
LINE
  5
280
  8
TLINE
 10
16242.124437017959
 20
16798.271953631262
 30
0.0
 11
16242.124437017959
 21
17078.271953631262
 31
0.0
  0
LINE
  5
281
  8
TLINE
 10
16192.124437017959
 20
16648.271953631262
 30
0.0
 11
16192.124437017979
 21
16748.271953631262
 31
0.0
  0
LINE
  5
282
  8
TLINE
 10
16242.124437017959
 20
16648.271953631262
 30
0.0
 11
16242.124437017979
 21
16748.271953631262
 31
0.0
  0
LINE
  5
283
  8
TLINE
 10
12192.124437017979
 20
16548.271953631262
 30
0.0
 11
12892.124437017979
 21
16548.271953631269
 31
0.0
  0
LINE
  5
284
  8
TLINE
 10
14442.12443701799
 20
16548.271953631269
 30
0.0
 11
15142.124437017979
 21
16548.271953631262
 31
0.0
  0
LINE
  5
285
  8
TLINE
 10
13692.124437017979
 20
16548.271953631269
 30
0.0
 11
14392.12443701801
 21
16548.271953631269
 31
0.0
  0
LINE
  5
286
  8
TLINE
 10
12942.124437017979
 20
16548.271953631269
 30
0.0
 11
13642.12443701799
 21
16548.271953631269
 31
0.0
  0
LINE
  5
287
  8
TLINE
 10
11972.12443701801
 20
16748.27195363128
 30
0.0
 11
11972.12443701801
 21
16648.271953631262
 31
0.0
  0
LINE
  5
288
  8
TLINE
 10
11947.124437017979
 20
16748.27195363128
 30
0.0
 11
11947.124437017959
 21
16648.271953631262
 31
0.0
  0
LINE
  5
289
  8
TLINE
 10
11947.124437017959
 20
16598.271953631262
 30
0.0
 11
11947.124437017959
 21
16498.271953631262
 31
0.0
  0
LINE
  5
28A
  8
TLINE
 10
11972.12443701799
 20
16598.271953631262
 30
0.0
 11
11972.12443701801
 21
16498.271953631262
 31
0.0
  0
LINE
  5
28B
  8
HONTAIGAIKEI
 10
11622.12443701799
 20
16798.271953631262
 30
0.0
 11
11458.02442331131
 21
17222.56164620151
 31
0.0
  0
ARC
  5
28C
  8
HONTAIGAIKEI
 10
11084.95541546158
 20
17078.271953631262
 30
0.0
 40
400.0
 50
21.14468021119367
 51
90.0
  0
LINE
  5
28D
  8
TLINE
 10
11827.363574697871
 20
16748.27195363128
 30
0.0
 11
11827.363574697871
 21
16648.271953631262
 31
0.0
  0
LINE
  5
28E
  8
TLINE
 10
11707.92498419991
 20
16748.27195363128
 30
0.0
 11
11707.92498419991
 21
16648.271953631262
 31
0.0
  0
ARC
  5
28F
  8
TLINE
 10
11785.41973818312
 20
17319.21050931589
 30
0.0
 40
30.0
 50
0.0
 51
90.0
  0
ARC
  5
290
  8
TLINE
 10
11749.868820714681
 20
17319.21050931589
 30
0.0
 40
30.0
 50
90.0
 51
180.0
  0
ARC
  5
291
  8
TLINE
 10
11800.4197381831
 20
17090.822211768551
 30
0.0
 40
15.0
 50
270.0
 51
0.0
  0
ARC
  5
292
  8
TLINE
 10
11734.868820714681
 20
17090.822211768551
 30
0.0
 40
15.0
 50
180.0
 51
270.0
  0
LINE
  5
293
  8
TLINE
 10
16336.98458092613
 20
16798.271953631262
 30
0.0
 11
16336.98458092613
 21
17078.271953631262
 31
0.0
  0
LINE
  5
294
  8
TLINE
 10
16386.984580926131
 20
16798.271953631262
 30
0.0
 11
16386.984580926131
 21
17078.271953631262
 31
0.0
  0
LINE
  5
295
  8
TLINE
 10
16470.15519065614
 20
16968.271953631262
 30
0.0
 11
16784.310048424701
 21
16968.271953631251
 31
0.0
  0
LINE
  5
296
  8
TLINE
 10
18909.93882561132
 20
16968.271953631251
 30
0.0
 11
19484.310048424712
 21
16968.271953631262
 31
0.0
  0
LINE
  5
297
  8
TLINE
 10
20259.93882561132
 20
16968.271953631262
 30
0.0
 11
20652.12443701801
 21
16968.271953631262
 31
0.0
  0
LINE
  5
298
  8
TLINE
 10
17559.93882561132
 20
16968.271953631251
 30
0.0
 11
18134.310048424701
 21
16968.271953631251
 31
0.0
  0
LINE
  5
299
  8
TLINE
 10
17587.936894743849
 20
16938.271953631251
 30
0.0
 11
18106.311979292172
 21
16938.271953631251
 31
0.0
  0
LINE
  5
29A
  8
TLINE
 10
15192.124437017979
 20
16828.271953631262
 30
0.0
 11
15408.35229273199
 21
16828.271953631262
 31
0.0
  0
LINE
  5
29B
  8
TLINE
 10
16472.124437017988
 20
16938.271953631251
 30
0.0
 11
16386.984580926121
 21
16927.046160335562
 31
0.0
  0
LINE
  5
29C
  8
TLINE
 10
16470.155190656151
 20
16968.271953631262
 30
0.0
 11
16386.984580926131
 21
16957.305807856959
 31
0.0
  0
LINE
  5
29D
  8
TLINE
 10
16192.124437017959
 20
16931.613261528
 30
0.0
 11
15408.35229273199
 21
16828.271953631262
 31
0.0
  0
LINE
  5
29E
  8
TLINE
 10
16192.124437017959
 20
16901.353614006599
 30
0.0
 11
15410.321539093869
 21
16798.271953631262
 31
0.0
  0
LINE
  5
29F
  8
TLINE
 10
16336.984580926121
 20
16950.7132472097
 30
0.0
 11
16242.124437017959
 21
16938.20582217526
 31
0.0
  0
LINE
  5
2A0
  8
TLINE
 10
16336.98458092613
 20
16920.453599688299
 30
0.0
 11
16242.124437017959
 21
16907.946174653862
 31
0.0
  0
LINE
  5
2A1
  8
TLINE
 10
17729.098241375221
 20
16891.668747981181
 30
0.0
 11
17729.098241375221
 21
16630.768511150109
 31
0.0
  0
LINE
  5
2A2
  8
TLINE
 10
17759.098241375221
 20
16600.768511150109
 30
0.0
 11
17847.12443701801
 21
16600.768511150109
 31
0.0
  0
LINE
  5
2A3
  8
TLINE
 10
17759.098241375221
 20
16921.668747981181
 30
0.0
 11
17847.12443701801
 21
16921.66874798117
 31
0.0
  0
LINE
  5
2A4
  8
TLINE
 10
17935.150632660789
 20
16921.668747981181
 30
0.0
 11
17847.12443701801
 21
16921.66874798117
 31
0.0
  0
LINE
  5
2A5
  8
TLINE
 10
17965.150632660789
 20
16891.668747981181
 30
0.0
 11
17965.150632660811
 21
16630.768511150109
 31
0.0
  0
LINE
  5
2A6
  8
TLINE
 10
17935.150632660811
 20
16600.768511150109
 30
0.0
 11
17847.12443701801
 21
16600.768511150109
 31
0.0
  0
ARC
  5
2A7
  8
TLINE
 10
17759.098241375221
 20
16891.668747981181
 30
0.0
 40
30.0
 50
90.0
 51
180.0
  0
ARC
  5
2A8
  8
TLINE
 10
17935.150632660789
 20
16891.668747981181
 30
0.0
 40
30.0
 50
0.0
 51
90.0
  0
ARC
  5
2A9
  8
TLINE
 10
17935.150632660811
 20
16630.768511150109
 30
0.0
 40
30.0
 50
270.0
 51
0.0
  0
ARC
  5
2AA
  8
TLINE
 10
17759.098241375221
 20
16630.768511150109
 30
0.0
 40
30.0
 50
180.0
 51
270.0
  0
ARC
  5
2AB
  8
TLINE
 10
19285.150632660811
 20
16891.668747981181
 30
0.0
 40
30.0
 50
0.0
 51
90.0
  0
LINE
  5
2AC
  8
TLINE
 10
19315.150632660811
 20
16891.668747981181
 30
0.0
 11
19315.150632660821
 21
16630.768511150109
 31
0.0
  0
LINE
  5
2AD
  8
TLINE
 10
19285.150632660811
 20
16921.668747981181
 30
0.0
 11
19197.124437018021
 21
16921.66874798117
 31
0.0
  0
ARC
  5
2AE
  8
TLINE
 10
19285.150632660821
 20
16630.768511150109
 30
0.0
 40
30.0
 50
270.0
 51
0.0
  0
LINE
  5
2AF
  8
TLINE
 10
19285.150632660821
 20
16600.768511150109
 30
0.0
 11
19197.124437018021
 21
16600.768511150109
 31
0.0
  0
LINE
  5
2B0
  8
TLINE
 10
19109.098241375239
 20
16600.768511150109
 30
0.0
 11
19197.124437018021
 21
16600.768511150109
 31
0.0
  0
ARC
  5
2B1
  8
TLINE
 10
19109.098241375239
 20
16630.768511150109
 30
0.0
 40
30.0
 50
180.0
 51
270.0
  0
LINE
  5
2B2
  8
TLINE
 10
19079.098241375239
 20
16891.668747981181
 30
0.0
 11
19079.098241375239
 21
16630.768511150109
 31
0.0
  0
LINE
  5
2B3
  8
TLINE
 10
19109.098241375239
 20
16921.668747981181
 30
0.0
 11
19197.124437018021
 21
16921.66874798117
 31
0.0
  0
ARC
  5
2B4
  8
TLINE
 10
19109.098241375239
 20
16891.668747981181
 30
0.0
 40
30.0
 50
90.0
 51
180.0
  0
LINE
  5
2B5
  8
HONTAIGAIKEI
 10
20301.750601991931
 20
16921.66874798117
 30
0.0
 11
20335.311442913389
 21
16921.66874798117
 31
0.0
  0
LINE
  5
2B6
  8
HONTAIGAIKEI
 10
20423.337638556179
 20
16921.668747981181
 30
0.0
 11
20335.311442913389
 21
16921.66874798117
 31
0.0
  0
LINE
  5
2B7
  8
HONTAIGAIKEI
 10
20453.337638556179
 20
16891.668747981181
 30
0.0
 11
20453.33763855619
 21
16630.768511150109
 31
0.0
  0
ARC
  5
2B8
  8
HONTAIGAIKEI
 10
20423.337638556179
 20
16891.668747981181
 30
0.0
 40
30.0
 50
0.0
 51
90.0
  0
ARC
  5
2B9
  8
HONTAIGAIKEI
 10
20423.33763855619
 20
16630.768511150109
 30
0.0
 40
30.0
 50
270.0
 51
0.0
  0
LINE
  5
2BA
  8
HONTAIGAIKEI
 10
20423.33763855619
 20
16600.768511150109
 30
0.0
 11
20421.664157966181
 21
16600.768511150109
 31
0.0
  0
ARC
  5
2BB
  8
TLINE
 10
16532.04452740015
 20
16891.668747981181
 30
0.0
 40
30.0
 50
90.0
 51
180.0
  0
LINE
  5
2BC
  8
TLINE
 10
16532.04452740015
 20
16921.668747981181
 30
0.0
 11
16620.07072304294
 21
16921.66874798117
 31
0.0
  0
LINE
  5
2BD
  8
TLINE
 10
16502.044527400161
 20
16891.668747981181
 30
0.0
 11
16502.044527400161
 21
16630.768511150109
 31
0.0
  0
LINE
  5
2BE
  8
TLINE
 10
16708.096918685729
 20
16921.668747981181
 30
0.0
 11
16620.07072304294
 21
16921.66874798117
 31
0.0
  0
ARC
  5
2BF
  8
TLINE
 10
16708.096918685729
 20
16891.668747981181
 30
0.0
 40
30.0
 50
35.149747953726909
 51
90.0
  0
LINE
  5
2C0
  8
TLINE
 10
16622.584716069829
 20
16600.768511150109
 30
0.0
 11
16620.07072304294
 21
16600.768511150109
 31
0.0
  0
LINE
  5
2C1
  8
TLINE
 10
16532.04452740015
 20
16600.768511150109
 30
0.0
 11
16620.07072304294
 21
16600.768511150109
 31
0.0
  0
ARC
  5
2C2
  8
TLINE
 10
16532.04452740015
 20
16630.768511150109
 30
0.0
 40
30.0
 50
180.0
 51
270.0
  0
LINE
  5
2C3
  8
TLINE
 10
16572.2901914619
 20
17023.397451387991
 30
0.0
 11
16672.841210474151
 21
17023.39745138798
 31
0.0
  0
LINE
  5
2C4
  8
TLINE
 10
16672.841210474151
 20
17075.088850008789
 30
0.0
 11
16572.290191461921
 21
17075.088850008779
 31
0.0
  0
LINE
  5
2C5
  8
TLINE
 10
16672.841210474151
 20
17075.088850008789
 30
0.0
 11
16567.300235611721
 21
17075.088850008779
 31
0.0
  0
LINE
  5
2C6
  8
TLINE
 10
16664.458737150799
 20
17023.397451387991
 30
0.0
 11
16664.458737150799
 21
16968.271953631251
 31
0.0
  0
LINE
  5
2C7
  8
TLINE
 10
16672.841210474151
 20
17023.397451387991
 30
0.0
 11
16672.841210474151
 21
17075.088850008789
 31
0.0
  0
LINE
  5
2C8
  8
TLINE
 10
16567.30023561171
 20
17023.397451387991
 30
0.0
 11
16672.841210474151
 21
17023.397451387991
 31
0.0
  0
LINE
  5
2C9
  8
TLINE
 10
16575.682708935092
 20
17023.397451387991
 30
0.0
 11
16575.682708935092
 21
16968.271953631251
 31
0.0
  0
LINE
  5
2CA
  8
TLINE
 10
16567.30023561171
 20
17075.088850008779
 30
0.0
 11
16567.30023561171
 21
17023.397451387991
 31
0.0
  0
LINE
  5
2CB
  8
TLINE
 10
17899.894924449211
 20
17075.088850008789
 30
0.0
 11
17794.353949586792
 21
17075.088850008779
 31
0.0
  0
LINE
  5
2CC
  8
TLINE
 10
17891.512451125858
 20
17023.397451387991
 30
0.0
 11
17891.512451125858
 21
16968.27195363124
 31
0.0
  0
LINE
  5
2CD
  8
TLINE
 10
17899.894924449211
 20
17023.397451387991
 30
0.0
 11
17899.894924449211
 21
17075.088850008789
 31
0.0
  0
LINE
  5
2CE
  8
TLINE
 10
17794.353949586781
 20
17023.397451387991
 30
0.0
 11
17899.894924449211
 21
17023.397451387991
 31
0.0
  0
LINE
  5
2CF
  8
TLINE
 10
17802.736422910151
 20
17023.397451387991
 30
0.0
 11
17802.736422910151
 21
16968.27195363124
 31
0.0
  0
LINE
  5
2D0
  8
TLINE
 10
17794.353949586781
 20
17075.088850008779
 30
0.0
 11
17794.353949586781
 21
17023.397451387991
 31
0.0
  0
LINE
  5
2D1
  8
TLINE
 10
19249.894924449229
 20
17075.088850008789
 30
0.0
 11
19144.353949586799
 21
17075.088850008779
 31
0.0
  0
LINE
  5
2D2
  8
TLINE
 10
19241.51245112588
 20
17023.397451387991
 30
0.0
 11
19241.51245112588
 21
16968.271953631262
 31
0.0
  0
LINE
  5
2D3
  8
TLINE
 10
19249.894924449229
 20
17023.397451387991
 30
0.0
 11
19249.894924449229
 21
17075.088850008789
 31
0.0
  0
LINE
  5
2D4
  8
TLINE
 10
19144.353949586792
 20
17023.397451387991
 30
0.0
 11
19249.894924449229
 21
17023.397451387991
 31
0.0
  0
LINE
  5
2D5
  8
TLINE
 10
19152.736422910169
 20
17023.397451387991
 30
0.0
 11
19152.73642291018
 21
16968.271953631262
 31
0.0
  0
LINE
  5
2D6
  8
TLINE
 10
19144.353949586792
 20
17075.088850008779
 30
0.0
 11
19144.353949586792
 21
17023.397451387991
 31
0.0
  0
LINE
  5
2D7
  8
TLINE
 10
15787.98088804192
 20
17075.088850008789
 30
0.0
 11
15682.4399131795
 21
17075.088850008779
 31
0.0
  0
LINE
  5
2D8
  8
TLINE
 10
15779.59841471857
 20
17023.397451387991
 30
0.0
 11
15779.598414718581
 21
16877.221205116392
 31
0.0
  0
LINE
  5
2D9
  8
TLINE
 10
15787.98088804192
 20
17023.397451387991
 30
0.0
 11
15787.98088804192
 21
17075.088850008789
 31
0.0
  0
LINE
  5
2DA
  8
TLINE
 10
15682.43991317948
 20
17023.397451387991
 30
0.0
 11
15787.98088804192
 21
17023.397451387991
 31
0.0
  0
LINE
  5
2DB
  8
TLINE
 10
15690.822386502859
 20
17023.397451387991
 30
0.0
 11
15690.822386502859
 21
16865.515978115691
 31
0.0
  0
LINE
  5
2DC
  8
TLINE
 10
15682.43991317948
 20
17075.088850008779
 30
0.0
 11
15682.43991317948
 21
17023.397451387991
 31
0.0
  0
LINE
  5
2DD
  8
TLINE
 10
13826.159139842681
 20
17075.088850008789
 30
0.0
 11
13720.61816498026
 21
17075.088850008779
 31
0.0
  0
LINE
  5
2DE
  8
TLINE
 10
13817.776666519339
 20
17023.397451387991
 30
0.0
 11
13817.776666519339
 21
16948.271953631262
 31
0.0
  0
LINE
  5
2DF
  8
TLINE
 10
13826.159139842681
 20
17023.397451387991
 30
0.0
 11
13826.159139842681
 21
17075.088850008789
 31
0.0
  0
LINE
  5
2E0
  8
TLINE
 10
13720.618164980249
 20
17023.397451387991
 30
0.0
 11
13826.159139842681
 21
17023.397451387991
 31
0.0
  0
LINE
  5
2E1
  8
TLINE
 10
13729.000638303631
 20
17023.397451387991
 30
0.0
 11
13729.000638303631
 21
16948.271953631262
 31
0.0
  0
LINE
  5
2E2
  8
TLINE
 10
13720.618164980249
 20
17075.088850008779
 30
0.0
 11
13720.618164980249
 21
17023.397451387991
 31
0.0
  0
LINE
  5
2E3
  8
TLINE
 10
12849.387091062659
 20
17075.088850008789
 30
0.0
 11
12743.84611620024
 21
17075.088850008779
 31
0.0
  0
LINE
  5
2E4
  8
TLINE
 10
12841.004617739311
 20
17023.397451387991
 30
0.0
 11
12841.00461773932
 21
16948.271953631262
 31
0.0
  0
LINE
  5
2E5
  8
TLINE
 10
12849.387091062659
 20
17023.397451387991
 30
0.0
 11
12849.387091062659
 21
17075.088850008789
 31
0.0
  0
LINE
  5
2E6
  8
TLINE
 10
12743.84611620022
 20
17023.397451387991
 30
0.0
 11
12849.387091062659
 21
17023.397451387991
 31
0.0
  0
LINE
  5
2E7
  8
TLINE
 10
12752.2285895236
 20
17023.397451387991
 30
0.0
 11
12752.2285895236
 21
16948.271953631262
 31
0.0
  0
LINE
  5
2E8
  8
TLINE
 10
12743.84611620022
 20
17075.088850008779
 30
0.0
 11
12743.84611620022
 21
17023.397451387991
 31
0.0
  0
LINE
  5
2E9
  8
TLINE
 10
14728.431581991001
 20
17075.088850008789
 30
0.0
 11
14622.89060712858
 21
17075.088850008779
 31
0.0
  0
LINE
  5
2EA
  8
TLINE
 10
14720.04910866765
 20
17023.397451387991
 30
0.0
 11
14720.04910866765
 21
16948.271953631269
 31
0.0
  0
LINE
  5
2EB
  8
TLINE
 10
14728.431581991001
 20
17023.397451387991
 30
0.0
 11
14728.431581991001
 21
17075.088850008789
 31
0.0
  0
LINE
  5
2EC
  8
TLINE
 10
14622.89060712856
 20
17023.397451387991
 30
0.0
 11
14728.431581991001
 21
17023.397451387991
 31
0.0
  0
LINE
  5
2ED
  8
TLINE
 10
14631.27308045194
 20
17023.397451387991
 30
0.0
 11
14631.27308045194
 21
16948.271953631269
 31
0.0
  0
LINE
  5
2EE
  8
TLINE
 10
14622.89060712856
 20
17075.088850008779
 30
0.0
 11
14622.89060712856
 21
17023.397451387991
 31
0.0
  0
LINE
  5
2EF
  8
TLINE
 10
12010.446584935529
 20
17078.271953631262
 30
0.0
 11
12010.446584935529
 21
17035.079935171609
 31
0.0
  0
LINE
  5
2F0
  8
TLINE
 10
12010.446584935529
 20
17035.079935171609
 30
0.0
 11
11972.12443701801
 21
17035.079935171609
 31
0.0
  0
LINE
  5
2F1
  8
TLINE
 10
20682.12443701801
 20
16946.337350012062
 30
0.0
 11
20682.124437017999
 21
17078.271953631262
 31
0.0
  0
LINE
  5
2F2
  8
HONTAIGAIKEI
 10
20972.12443701801
 20
16542.97723378268
 30
0.0
 11
20869.247325600201
 21
16542.97723378268
 31
0.0
  0
LINE
  5
2F3
  8
HONTAIGAIKEI
 10
20869.247325600201
 20
16542.97723378268
 30
0.0
 11
20869.247325600201
 21
16733.201808116231
 31
0.0
  0
LINE
  5
2F4
  8
HONTAIGAIKEI
 10
20869.247325600201
 20
16733.201808116231
 30
0.0
 11
20972.124437017999
 21
16733.201808116231
 31
0.0
  0
LINE
  5
2F5
  8
TLINE
 10
20652.12443701801
 20
16938.271953631262
 30
0.0
 11
20869.247325600201
 21
16563.653825951718
 31
0.0
  0
LINE
  5
2F6
  8
TLINE
 10
20682.12443701801
 20
16946.337350012062
 30
0.0
 11
20869.247325600201
 21
16623.48043416872
 31
0.0
  0
LINE
  5
2F7
  8
HONTAIGAIKEI
 10
20942.609088002198
 20
17046.297212094039
 30
0.0
 11
20942.609088002198
 21
16733.201808116231
 31
0.0
  0
LINE
  5
2F8
  8
HONTAIGAIKEI
 10
20872.124437017999
 20
17078.271953631262
 30
0.0
 11
20942.609088002198
 21
17046.297212094039
 31
0.0
  0
LINE
  5
2F9
  8
HONTAIGAIKEI
 10
20740.82208959532
 20
16845.061962367388
 30
0.0
 11
20942.60908800218
 21
16845.061962367388
 31
0.0
  0
LINE
  5
2FA
  8
HONTAIGAIKEI
 10
20902.255132845679
 20
16845.061962367388
 30
0.0
 11
20902.255132845679
 21
16733.201808116231
 31
0.0
  0
LINE
  5
2FB
  8
HONTAIGAIKEI
 10
20902.255132845679
 20
16845.061962367388
 30
0.0
 11
20872.124437017999
 21
16860.207882572678
 31
0.0
  0
LINE
  5
2FC
  8
HONTAIGAIKEI
 10
17644.366052616831
 20
16860.207862122221
 30
0.0
 11
17729.098241375239
 21
16860.207862122221
 31
0.0
  0
LINE
  5
2FD
  8
HONTAIGAIKEI
 10
17690.897028738229
 20
16760.960207440559
 30
0.0
 11
17729.098241375239
 21
16760.96020744057
 31
0.0
  0
LINE
  5
2FE
  8
HONTAIGAIKEI
 10
19315.150632660821
 20
16860.207862122221
 30
0.0
 11
19399.8828214192
 21
16860.207862122221
 31
0.0
  0
LINE
  5
2FF
  8
HONTAIGAIKEI
 10
19315.150632660821
 20
16760.960207440559
 30
0.0
 11
19353.351845297791
 21
16760.96020744057
 31
0.0
  0
LINE
  5
300
  8
HONTAIGAIKEI
 10
19040.897028738229
 20
16760.960207440559
 30
0.0
 11
19079.098241375239
 21
16760.960207440559
 31
0.0
  0
LINE
  5
301
  8
HONTAIGAIKEI
 10
18994.36605261681
 20
16860.207862122221
 30
0.0
 11
19079.098241375239
 21
16860.207862122221
 31
0.0
  0
LINE
  5
302
  8
HONTAIGAIKEI
 10
17965.150632660811
 20
16860.207862122221
 30
0.0
 11
18049.882821419211
 21
16860.207862122221
 31
0.0
  0
LINE
  5
303
  8
HONTAIGAIKEI
 10
17965.150632660811
 20
16760.96020744057
 30
0.0
 11
18003.351845297791
 21
16760.960207440559
 31
0.0
  0
CIRCLE
  5
304
  8
TLINE
 10
17847.124437017988
 20
16822.989983947678
 30
0.0
 40
30.0
  0
CIRCLE
  5
305
  8
TLINE
 10
17847.124437017988
 20
16694.795104319452
 30
0.0
 40
30.0
  0
CIRCLE
  5
306
  8
TLINE
 10
19197.124437018021
 20
16822.989983947678
 30
0.0
 40
30.0
  0
CIRCLE
  5
307
  8
TLINE
 10
19197.124437018021
 20
16694.795104319452
 30
0.0
 40
30.0
  0
LINE
  5
308
  8
CENTER
 62
     6
 10
19198.801717767761
 20
16578.271953631262
 30
0.0
 11
20545.44715626827
 21
16578.271953631251
 31
0.0
  0
LINE
  5
309
  8
CENTER
 62
     6
 10
17848.801717767761
 20
16578.271953631262
 30
0.0
 11
19195.447156268259
 21
16578.271953631262
 31
0.0
  0
LINE
  5
30A
  8
CENTER
 10
16472.124437018068
 20
15900.83160239511
 30
0.0
 11
16472.124437017908
 21
17472.25345216885
 31
0.0
  0
ENDSEC
  0
EOF
