  0
SECTION
  2
HEADER
  9
$ACADVER
  1
AC1009
  9
$INSBASE
 10
9492.1244370179975
 20
32862.521262876253
 30
0.0
  9
$EXTMIN
 10
4276.4467267780847
 20
26243.834184189302
 30
0.0
  9
$EXTMAX
 10
21542.87418256473
 20
35737.390913982788
 30
0.0
  9
$LIMMIN
 10
0.0
 20
0.0
  9
$LIMMAX
 10
420.0
 20
297.0
  9
$ORTHOMODE
 70
     1
  9
$REGENMODE
 70
     1
  9
$FILLMODE
 70
     1
  9
$QTEXTMODE
 70
     0
  9
$MIRRTEXT
 70
     1
  9
$DRAGMODE
 70
     2
  9
$LTSCALE
 40
500.0
  9
$OSMODE
 70
    44
  9
$ATTMODE
 70
     1
  9
$TEXTSIZE
 40
2.5
  9
$TRACEWID
 40
1.0
  9
$TEXTSTYLE
  7
STANDARD
  9
$CLAYER
  8
DIMENSION
  9
$CELTYPE
  6
BYLAYER
  9
$CECOLOR
 62
   256
  9
$DIMSCALE
 40
1500.0
  9
$DIMASZ
 40
0.18
  9
$DIMEXO
 40
0.0625
  9
$DIMDLI
 40
0.38
  9
$DIMRND
 40
0.0
  9
$DIMDLE
 40
0.0
  9
$DIMEXE
 40
0.14
  9
$DIMTP
 40
0.0
  9
$DIMTM
 40
0.0
  9
$DIMTXT
 40
0.18
  9
$DIMCEN
 40
0.09
  9
$DIMTSZ
 40
0.0
  9
$DIMTOL
 70
     0
  9
$DIMLIM
 70
     0
  9
$DIMTIH
 70
     0
  9
$DIMTOH
 70
     0
  9
$DIMSE1
 70
     0
  9
$DIMSE2
 70
     0
  9
$DIMTAD
 70
     1
  9
$DIMZIN
 70
     0
  9
$DIMBLK
  1

  9
$DIMASO
 70
     1
  9
$DIMSHO
 70
     1
  9
$DIMPOST
  1

  9
$DIMAPOST
  1

  9
$DIMALT
 70
     0
  9
$DIMALTD
 70
     2
  9
$DIMALTF
 40
25.399999999999999
  9
$DIMLFAC
 40
1.0
  9
$DIMTOFL
 70
     1
  9
$DIMTVP
 40
0.0
  9
$DIMTIX
 70
     0
  9
$DIMSOXD
 70
     0
  9
$DIMSAH
 70
     0
  9
$DIMBLK1
  1

  9
$DIMBLK2
  1

  9
$DIMSTYLE
  2
STANDARD
  9
$DIMCLRD
 70
     0
  9
$DIMCLRE
 70
     0
  9
$DIMCLRT
 70
     0
  9
$DIMTFAC
 40
1.0
  9
$DIMGAP
 40
0.05
  9
$LUNITS
 70
     2
  9
$LUPREC
 70
     4
  9
$SKETCHINC
 40
1.0
  9
$FILLETRAD
 40
10.0
  9
$AUNITS
 70
     0
  9
$AUPREC
 70
     0
  9
$MENU
  1
.
  9
$ELEVATION
 40
0.0
  9
$PELEVATION
 40
0.0
  9
$THICKNESS
 40
0.0
  9
$LIMCHECK
 70
     0
  9
$BLIPMODE
 70
     0
  9
$CHAMFERA
 40
10.0
  9
$CHAMFERB
 40
10.0
  9
$SKPOLY
 70
     0
  9
$TDCREATE
 40
2454165.6815858218
  9
$TDUPDATE
 40
2455575.6488745948
  9
$TDINDWG
 40
0.0826799421
  9
$TDUSRTIMER
 40
0.0826799421
  9
$USRTIMER
 70
     1
  9
$ANGBASE
 50
0.0
  9
$ANGDIR
 70
     0
  9
$PDMODE
 70
     0
  9
$PDSIZE
 40
0.0
  9
$PLINEWID
 40
0.0
  9
$COORDS
 70
     0
  9
$SPLFRAME
 70
     0
  9
$SPLINETYPE
 70
     6
  9
$SPLINESEGS
 70
     8
  9
$ATTDIA
 70
     0
  9
$ATTREQ
 70
     1
  9
$HANDLING
 70
     1
  9
$HANDSEED
  5
4A8
  9
$SURFTAB1
 70
     6
  9
$SURFTAB2
 70
     6
  9
$SURFTYPE
 70
     6
  9
$SURFU
 70
     6
  9
$SURFV
 70
     6
  9
$UCSNAME
  2

  9
$UCSORG
 10
0.0
 20
0.0
 30
0.0
  9
$UCSXDIR
 10
1.0
 20
0.0
 30
0.0
  9
$UCSYDIR
 10
0.0
 20
1.0
 30
0.0
  9
$PUCSNAME
  2

  9
$PUCSORG
 10
0.0
 20
0.0
 30
0.0
  9
$PUCSXDIR
 10
1.0
 20
0.0
 30
0.0
  9
$PUCSYDIR
 10
0.0
 20
1.0
 30
0.0
  9
$USERI1
 70
     0
  9
$USERI2
 70
     0
  9
$USERI3
 70
     0
  9
$USERI4
 70
     0
  9
$USERI5
 70
     0
  9
$USERR1
 40
0.0
  9
$USERR2
 40
0.0
  9
$USERR3
 40
0.0
  9
$USERR4
 40
0.0
  9
$USERR5
 40
0.0
  9
$WORLDVIEW
 70
     1
  9
$SHADEDGE
 70
     3
  9
$SHADEDIF
 70
    70
  9
$TILEMODE
 70
     1
  9
$MAXACTVP
 70
    64
  9
$PLIMCHECK
 70
     0
  9
$PEXTMIN
 10
0.0
 20
0.0
 30
0.0
  9
$PEXTMAX
 10
0.0
 20
0.0
 30
0.0
  9
$PLIMMIN
 10
0.0
 20
0.0
  9
$PLIMMAX
 10
12.0
 20
9.0
  9
$UNITMODE
 70
     0
  9
$VISRETAIN
 70
     1
  9
$PLINEGEN
 70
     0
  9
$PSLTSCALE
 70
     1
  0
ENDSEC
  0
SECTION
  2
TABLES
  0
TABLE
  2
VPORT
 70
     3
  0
VPORT
  2
*ACTIVE
 70
     0
 10
0.0
 20
0.0
 11
1.0
 21
1.0
 12
12791.8187632794
 22
30829.03651968405
 13
0.0
 23
0.0
 14
10.0
 24
10.0
 15
10.0
 25
10.0
 16
0.0
 26
0.0
 36
1.0
 17
0.0
 27
0.0
 37
0.0
 40
12185.15501123888
 41
1.6793478260869561
 42
50.0
 43
0.0
 44
0.0
 50
0.0
 51
0.0
 71
     0
 72
   100
 73
     1
 74
     1
 75
     0
 76
     0
 77
     0
 78
     0
  0
ENDTAB
  0
TABLE
  2
LTYPE
 70
     2
  0
LTYPE
  2
CONTINUOUS
 70
     0
  3
Solid line
 72
    65
 73
     0
 40
0.0
  0
LTYPE
  2
CENTER
 70
     0
  3
____ _ ____ _ ____ _ ____ _ ____ _ ____ _ ____ 
 72
    65
 73
     4
 40
2.0
 49
1.25
 49
-0.25
 49
0.25
 49
-0.25
  0
ENDTAB
  0
TABLE
  2
LAYER
 70
     6
  0
LAYER
  2
0
 70
     0
 62
     7
  6
CONTINUOUS
  0
LAYER
  2
CENTER
 70
     0
 62
     6
  6
CENTER
  0
LAYER
  2
HONTAIGAIKEI
 70
     0
 62
     2
  6
CONTINUOUS
  0
LAYER
  2
DOUSEN
 70
     0
 62
     3
  6
CONTINUOUS
  0
LAYER
  2
DIMENSION
 70
     0
 62
     1
  6
CONTINUOUS
  0
LAYER
  2
TLINE
 70
     0
 62
     1
  6
CONTINUOUS
  0
ENDTAB
  0
TABLE
  2
STYLE
 70
     1
  0
STYLE
  2
STANDARD
 70
     0
 40
0.0
 41
1.0
 50
0.0
 71
     0
 42
2.5
  3
txt.shx
  4
extfont2.shx
  0
ENDTAB
  0
TABLE
  2
VIEW
 70
     0
  0
ENDTAB
  0
TABLE
  2
UCS
 70
     0
  0
ENDTAB
  0
TABLE
  2
APPID
 70
     7
  0
APPID
  2
ACAD
 70
     0
  0
APPID
  2
RAK
 70
     0
  0
APPID
  2
ACAD_DSTYLE_DIMJOGGED_JOGA
 70
     0
  0
APPID
  2
ACAD_DSTYLE_DIMEXT_ENABLED
 70
     0
  0
APPID
  2
ACAD_DSTYLE_DIMEXT_LENGTH
 70
     0
  0
APPID
  2
ACAD_DSTYLE_DIMARC_LENGTH_
 70
     0
  0
APPID
  2
ACAECLAYERSTANDARD
 70
     0
  0
ENDTAB
  0
TABLE
  2
DIMSTYLE
 70
     1
  0
DIMSTYLE
  2
STANDARD
 70
     0
  3

  4

  5

  6

  7

 40
1500.0
 41
0.18
 42
0.0625
 43
0.38
 44
0.14
 45
0.0
 46
0.0
 47
0.0
 48
0.0
140
0.18
141
0.09
142
0.0
143
25.399999999999999
144
1.0
145
0.0
146
1.0
147
0.05
 71
     0
 72
     0
 73
     0
 74
     0
 75
     0
 76
     0
 77
     1
 78
     0
170
     0
171
     2
172
     1
173
     0
174
     0
175
     0
176
     0
177
     0
178
     0
  0
ENDTAB
  0
ENDSEC
  0
SECTION
  2
BLOCKS
  0
BLOCK
  8
0
  2
$MODEL_SPACE
 70
     0
 10
0.0
 20
0.0
 30
0.0
  3
$MODEL_SPACE
  1

  0
ENDBLK
  5
C
  8
0
  0
BLOCK
 67
     1
  8
0
  2
$PAPER_SPACE
 70
     0
 10
0.0
 20
0.0
 30
0.0
  3
$PAPER_SPACE
  1

  0
ENDBLK
  5
11
 67
     1
  8
0
  0
ENDSEC
  0
SECTION
  2
ENTITIES
  0
LINE
  5
34
  8
CENTER
 10
18592.124437018068
 20
29443.834184189302
 30
0.0
 11
18592.124437018068
 21
26243.834184189302
 31
0.0
  0
LINE
  5
37
  8
CENTER
 10
19892.124437018101
 20
29443.834184189302
 30
0.0
 11
19892.124437018039
 21
26243.834184189302
 31
0.0
  0
LINE
  5
38
  8
HONTAIGAIKEI
 10
20992.124437018068
 20
29443.834184189302
 30
0.0
 11
20992.124437018068
 21
26243.834184189302
 31
0.0
  0
LINE
  5
3A
  8
HONTAIGAIKEI
 10
18042.124437018068
 20
29443.834184189302
 30
0.0
 11
18042.124437018068
 21
26243.834184189302
 31
0.0
  0
LINE
  5
3B
  8
HONTAIGAIKEI
 10
20992.124437018068
 20
26243.834184189302
 30
0.0
 11
12042.12443701807
 21
26243.834184189302
 31
0.0
  0
LINE
  5
3C
  8
HONTAIGAIKEI
 10
12042.12443701807
 20
29443.834184189302
 30
0.0
 11
12042.12443701807
 21
26243.834184189302
 31
0.0
  0
LINE
  5
3D
  8
HONTAIGAIKEI
 10
11542.12443701807
 20
29243.834184189302
 30
0.0
 11
11892.12443701813
 21
29243.834184189302
 31
0.0
  0
LINE
  5
3E
  8
HONTAIGAIKEI
 10
11892.12443701807
 20
26443.834184189302
 30
0.0
 11
11542.12443701807
 21
26443.834184189302
 31
0.0
  0
LINE
  5
3F
  8
HONTAIGAIKEI
 10
11892.12443701807
 20
29243.834184189302
 30
0.0
 11
11892.12443701807
 21
28843.834184189302
 31
0.0
  0
LINE
  5
40
  8
HONTAIGAIKEI
 10
11542.12443701807
 20
29243.834184189302
 30
0.0
 11
11542.12443701807
 21
28843.834184189302
 31
0.0
  0
LINE
  5
41
  8
HONTAIGAIKEI
 10
11892.12443701807
 20
26843.834184189302
 30
0.0
 11
11892.12443701813
 21
26443.834184189302
 31
0.0
  0
LINE
  5
42
  8
HONTAIGAIKEI
 10
11542.12443701807
 20
26843.834184189302
 30
0.0
 11
11542.124437018119
 21
26443.834184189302
 31
0.0
  0
LINE
  5
43
  8
HONTAIGAIKEI
 10
11642.124437018119
 20
29393.834184189302
 30
0.0
 11
12042.124437018119
 21
29393.834184189302
 31
0.0
  0
LINE
  5
44
  8
HONTAIGAIKEI
 10
12042.124437018119
 20
26293.834184189302
 30
0.0
 11
11642.124437018119
 21
26293.834184189302
 31
0.0
  0
LINE
  5
45
  8
HONTAIGAIKEI
 10
11442.124437018119
 20
26493.834184189302
 30
0.0
 11
11442.124437018119
 21
26493.83418418936
 31
0.0
  0
ARC
  5
46
  8
HONTAIGAIKEI
 10
11642.124437018119
 20
29193.834184189302
 30
0.0
 40
200.0
 50
90.0
 51
180.0
  0
ARC
  5
47
  8
HONTAIGAIKEI
 10
11642.124437018119
 20
26493.834184189302
 30
0.0
 40
200.0
 50
180.0
 51
270.0
  0
LINE
  5
48
  8
HONTAIGAIKEI
 10
12042.12443701807
 20
29443.834184189302
 30
0.0
 11
20992.124437018068
 21
29443.834184189302
 31
0.0
  0
LINE
  5
49
  8
HONTAIGAIKEI
 10
10842.12443701807
 20
28843.834184189302
 30
0.0
 11
12042.12443701807
 21
28843.834184189302
 31
0.0
  0
LINE
  5
4A
  8
HONTAIGAIKEI
 10
12042.12443701807
 20
26843.834184189302
 30
0.0
 11
10842.12443701795
 21
26843.834184189302
 31
0.0
  0
LINE
  5
4B
  8
HONTAIGAIKEI
 10
9042.1244370180102
 20
28636.102188204561
 30
0.0
 11
9042.1244370180102
 21
27051.566180173981
 31
0.0
  0
LINE
  5
4C
  8
HONTAIGAIKEI
 10
10842.12443701801
 20
28843.834184189302
 30
0.0
 11
9173.7143980198925
 21
28751.144737578321
 31
0.0
  0
LINE
  5
4D
  8
HONTAIGAIKEI
 10
10842.12443701801
 20
26843.834184189302
 30
0.0
 11
9173.7143980198343
 21
26936.52363080034
 31
0.0
  0
LINE
  5
4E
  8
HONTAIGAIKEI
 10
9173.7143980198343
 20
28751.144737578321
 30
0.0
 11
9042.1244370180102
 21
28636.102188204561
 31
0.0
  0
LINE
  5
4F
  8
HONTAIGAIKEI
 10
9173.7143980198343
 20
26936.523630800279
 30
0.0
 11
9042.1244370180102
 21
27051.566180173981
 31
0.0
  0
LINE
  5
50
  8
CENTER
 10
9492.1244370180684
 20
28482.31458306764
 30
0.0
 11
9492.1244370180684
 21
27206.65147750566
 31
0.0
  0
LINE
  5
51
  8
CENTER
 10
8929.1868451108494
 20
27843.834184189302
 30
0.0
 11
21542.87418256473
 21
27843.834184189302
 31
0.0
  0
LINE
  5
52
  8
HONTAIGAIKEI
 10
4817.1244370180102
 20
29730.166787666811
 30
0.0
 11
4817.1244370180102
 21
31620.166787666811
 31
0.0
  0
ARC
  5
53
  8
HONTAIGAIKEI
 10
5117.1244370180102
 20
31620.166787666811
 30
0.0
 40
300.0
 50
90.0
 51
180.0
  0
ARC
  5
54
  8
HONTAIGAIKEI
 10
5117.1244370180102
 20
29730.166787666811
 30
0.0
 40
300.0
 50
180.0
 51
270.0
  0
LINE
  5
55
  8
HONTAIGAIKEI
 10
11252.41433968373
 20
29529.995663568101
 30
0.0
 11
11252.41433968373
 21
31820.337911765509
 31
0.0
  0
LINE
  5
56
  8
HONTAIGAIKEI
 10
11147.816289776019
 20
31920.166787666811
 30
0.0
 11
11252.41433968373
 21
31820.337911765459
 31
0.0
  0
LINE
  5
57
  8
HONTAIGAIKEI
 10
11147.816289776079
 20
29430.1667876668
 30
0.0
 11
11252.41433968373
 21
29529.995663568039
 31
0.0
  0
LINE
  5
58
  8
CENTER
 10
10417.12443701801
 20
31920.166787666811
 30
0.0
 11
10417.12443701801
 21
29430.1667876668
 31
0.0
  0
LINE
  5
59
  8
CENTER
 10
9492.1244370180684
 20
31313.647186545149
 30
0.0
 11
9492.1244370180684
 21
30037.984080983169
 31
0.0
  0
LINE
  5
5A
  8
CENTER
 10
9117.1244370180102
 20
31920.166787666811
 30
0.0
 11
9117.1244370180102
 21
29430.1667876668
 31
0.0
  0
LINE
  5
5B
  8
HONTAIGAIKEI
 10
6917.124437017952
 20
31920.166787666811
 30
0.0
 11
11147.816289776079
 21
31920.166787666811
 31
0.0
  0
LINE
  5
5C
  8
HONTAIGAIKEI
 10
11147.816289776079
 20
29430.1667876668
 30
0.0
 11
6917.124437017952
 21
29430.1667876668
 31
0.0
  0
LINE
  5
5D
  8
HONTAIGAIKEI
 10
6817.124437017952
 20
29530.1667876668
 30
0.0
 11
6817.124437017952
 21
31820.166787666811
 31
0.0
  0
ARC
  5
5E
  8
HONTAIGAIKEI
 10
6717.124437017952
 20
31820.166787666811
 30
0.0
 40
100.0
 50
0.0
 51
90.0
  0
ARC
  5
5F
  8
HONTAIGAIKEI
 10
6717.124437017952
 20
29530.1667876668
 30
0.0
 40
100.0
 50
270.0
 51
0.0
  0
ARC
  5
60
  8
HONTAIGAIKEI
 10
6917.124437017952
 20
31820.166787666811
 30
0.0
 40
100.0
 50
90.0
 51
180.0
  0
ARC
  5
61
  8
HONTAIGAIKEI
 10
6917.124437017952
 20
29530.1667876668
 30
0.0
 40
100.0
 50
180.0
 51
270.0
  0
LINE
  5
62
  8
HONTAIGAIKEI
 10
5117.1244370180102
 20
31920.166787666811
 30
0.0
 11
6717.124437017952
 21
31920.166787666811
 31
0.0
  0
LINE
  5
63
  8
HONTAIGAIKEI
 10
5117.1244370180102
 20
29430.1667876668
 30
0.0
 11
6717.124437017952
 21
29430.1667876668
 31
0.0
  0
LINE
  5
64
  8
CENTER
 10
4434.6939914826098
 20
30675.166787666811
 30
0.0
 11
11589.637811464159
 21
30675.166787666811
 31
0.0
  0
LINE
  5
65
  8
CENTER
 10
6017.1244370180111
 20
31920.166787666811
 30
0.0
 11
6017.1244370180111
 21
29430.1667876668
 31
0.0
  0
ARC
  5
66
  8
TLINE
 10
11622.63021610658
 20
34108.027041964851
 30
0.0
 40
394.49422091137973
 50
0.0
 51
90.0
  0
ARC
  5
69
  8
HONTAIGAIKEI
 10
11622.63021610658
 20
34108.027041964851
 30
0.0
 40
419.49422091139411
 50
0.0
 51
90.0
  0
LINE
  5
6A
  8
TLINE
 10
20872.12443701801
 20
33470.169428713387
 30
0.0
 11
20872.12443701801
 21
33229.911779527487
 31
0.0
  0
LINE
  5
6B
  8
TLINE
 10
20657.283844921221
 20
33515.652791377448
 30
0.0
 11
20872.124437018039
 21
33470.169428713387
 31
0.0
  0
LINE
  5
6C
  8
TLINE
 10
11348.00360428631
 20
33584.785180334613
 30
0.0
 11
11318.741830172639
 21
33584.785180334613
 31
0.0
  0
LINE
  5
6D
  8
TLINE
 10
11348.00360428631
 20
33584.785180334613
 30
0.0
 11
11348.00360428631
 21
33574.785180334613
 31
0.0
  0
LINE
  5
6E
  8
TLINE
 10
11348.00360428631
 20
33700.630675145418
 30
0.0
 11
11348.00360428631
 21
33690.630675145418
 31
0.0
  0
LINE
  5
6F
  8
TLINE
 10
11318.741830172639
 20
33690.630675145418
 30
0.0
 11
11348.00360428631
 21
33690.630675145418
 31
0.0
  0
LINE
  5
70
  8
TLINE
 10
11289.480056058999
 20
33584.785180334613
 30
0.0
 11
11318.741830172639
 21
33584.785180334613
 31
0.0
  0
LINE
  5
71
  8
TLINE
 10
11318.741830172639
 20
33690.630675145418
 30
0.0
 11
11289.480056058999
 21
33690.630675145418
 31
0.0
  0
LINE
  5
72
  8
TLINE
 10
11289.480056058999
 20
33584.785180334613
 30
0.0
 11
11289.480056058979
 21
33574.785180334613
 31
0.0
  0
LINE
  5
73
  8
TLINE
 10
11289.480056058999
 20
33700.630675145418
 30
0.0
 11
11289.480056058999
 21
33690.630675145418
 31
0.0
  0
LINE
  5
74
  8
TLINE
 10
11312.315179330049
 20
33530.356510711339
 30
0.0
 11
11308.31010441788
 21
33555.257437488966
 31
0.0
  0
LINE
  5
75
  8
TLINE
 10
11325.168481015249
 20
33530.356510711339
 30
0.0
 11
11329.17355592742
 21
33555.257437488966
 31
0.0
  0
ARC
  5
76
  8
TLINE
 10
11318.741830172639
 20
33531.390175774839
 30
0.0
 40
6.5092476152203744
 50
189.1372199740058
 51
350.8627800259942
  0
LINE
  5
77
  8
TLINE
 10
11332.31440581069
 20
33690.630675145418
 30
0.0
 11
11332.314405810699
 21
33584.785180334613
 31
0.0
  0
LINE
  5
78
  8
TLINE
 10
11305.1692545346
 20
33690.630675145418
 30
0.0
 11
11305.1692545346
 21
33584.785180334613
 31
0.0
  0
LINE
  5
79
  8
TLINE
 10
11338.28634284727
 20
33731.007164016417
 30
0.0
 11
11338.28634284727
 21
33720.158417991071
 31
0.0
  0
LINE
  5
7A
  8
TLINE
 10
11299.197317498019
 20
33731.007164016417
 30
0.0
 11
11338.28634284727
 21
33731.007164016417
 31
0.0
  0
LINE
  5
7B
  8
TLINE
 10
11299.197317498019
 20
33720.158417991071
 30
0.0
 11
11299.197317498019
 21
33731.007164016417
 31
0.0
  0
LINE
  5
7C
  8
TLINE
 10
11252.41433968373
 20
33574.785180334613
 30
0.0
 11
11346.97262599862
 21
33574.785180334613
 31
0.0
  0
LINE
  5
7D
  8
TLINE
 10
11346.97262599862
 20
33574.785180334613
 30
0.0
 11
11346.97262599862
 21
33555.257437488966
 31
0.0
  0
LINE
  5
7E
  8
TLINE
 10
11346.97262599862
 20
33555.257437488966
 30
0.0
 11
11252.41433968373
 21
33555.257437488966
 31
0.0
  0
LINE
  5
7F
  8
TLINE
 10
11346.97262599862
 20
33700.630675145418
 30
0.0
 11
11252.41433968373
 21
33700.630675145418
 31
0.0
  0
LINE
  5
80
  8
TLINE
 10
11346.97262599862
 20
33720.158417991071
 30
0.0
 11
11346.97262599862
 21
33700.630675145418
 31
0.0
  0
LINE
  5
81
  8
TLINE
 10
11252.41433968373
 20
33720.158417991071
 30
0.0
 11
11346.97262599862
 21
33720.158417991071
 31
0.0
  0
LINE
  5
82
  8
HONTAIGAIKEI
 10
11156.956604624451
 20
33767.892920960971
 30
0.0
 11
11222.104967687061
 21
33767.892920960971
 31
0.0
  0
LINE
  5
83
  8
HONTAIGAIKEI
 10
11156.956604624451
 20
33620.349934099453
 30
0.0
 11
11156.956604624451
 21
33767.892920960971
 31
0.0
  0
LINE
  5
84
  8
HONTAIGAIKEI
 10
11222.10496768705
 20
33620.349934099453
 30
0.0
 11
11156.956604624451
 21
33620.349934099453
 31
0.0
  0
LINE
  5
85
  8
HONTAIGAIKEI
 10
11222.104967687061
 20
33767.892920960971
 30
0.0
 11
11222.10496768705
 21
33620.349934099453
 31
0.0
  0
LINE
  5
86
  8
TLINE
 10
5683.3392549477321
 20
35707.422672616492
 30
0.0
 11
5722.5258632252699
 21
35632.521262876253
 31
0.0
  0
LINE
  5
87
  8
TLINE
 10
5449.5743841795083
 20
35632.521262876253
 30
0.0
 11
5399.3391406012424
 21
35733.61319438144
 31
0.0
  0
LINE
  5
88
  8
TLINE
 10
11538.67616115592
 20
33137.521262876253
 30
0.0
 11
18042.12443701801
 21
33137.521262876282
 31
0.0
  0
LINE
  5
89
  8
TLINE
 10
12017.124437017979
 20
34108.027041964851
 30
0.0
 11
12017.124437017979
 21
33575.995208776701
 31
0.0
  0
ARC
  5
8A
  8
HONTAIGAIKEI
 10
4887.645698804019
 20
34328.600014110067
 30
0.0
 40
20.0
 50
171.77383621770639
 51
204.7998657390529
  0
ARC
  5
8B
  8
HONTAIGAIKEI
 10
5129.8760522796838
 20
34116.156365810813
 30
0.0
 40
10.0
 50
270.0
 51
0.0
  0
ARC
  5
8C
  8
HONTAIGAIKEI
 10
4975.5816445492128
 20
34141.961238408781
 30
0.0
 40
10.0
 50
270.0
 51
0.0
  0
ARC
  5
8D
  8
HONTAIGAIKEI
 10
4965.5816445492128
 20
34242.521262876253
 30
0.0
 40
20.0
 50
0.0
 51
90.0
  0
ARC
  5
8E
  8
HONTAIGAIKEI
 10
5119.8760522796701
 20
34335.878017047333
 30
0.0
 40
20.0
 50
0.0
 51
90.0
  0
LINE
  5
8F
  8
HONTAIGAIKEI
 10
5129.8760522796838
 20
34106.156365810813
 30
0.0
 11
4871.4502031839247
 21
34106.156365810813
 31
0.0
  0
LINE
  5
90
  8
HONTAIGAIKEI
 10
5139.8760522796692
 20
34335.878017047333
 30
0.0
 11
5139.8760522796838
 21
34116.156365810813
 31
0.0
  0
LINE
  5
91
  8
HONTAIGAIKEI
 10
4871.3813155731523
 20
34355.87801704734
 30
0.0
 11
5119.8760522796701
 21
34355.87801704734
 31
0.0
  0
LINE
  5
92
  8
HONTAIGAIKEI
 10
4896.1463733357559
 20
34131.961238408781
 30
0.0
 11
4975.5816445492128
 21
34131.961238408781
 31
0.0
  0
ARC
  5
93
  8
HONTAIGAIKEI
 10
4896.1463733357714
 20
34107.241250642517
 30
0.0
 40
24.719987766260601
 50
90.0
 51
270.0
  0
LINE
  5
94
  8
HONTAIGAIKEI
 10
4985.5816445492128
 20
34242.521262876253
 30
0.0
 11
4985.5816445492128
 21
34141.961238408781
 31
0.0
  0
LINE
  5
95
  8
HONTAIGAIKEI
 10
5374.3000455657348
 20
33346.310181919813
 30
0.0
 11
5374.3000455657348
 21
33412.521262876282
 31
0.0
  0
LINE
  5
96
  8
HONTAIGAIKEI
 10
5354.7555516703178
 20
33346.310181919813
 30
0.0
 11
5374.3000455657348
 21
33346.310181919813
 31
0.0
  0
LINE
  5
97
  8
HONTAIGAIKEI
 10
5354.7555516703178
 20
33412.521262876282
 30
0.0
 11
5354.7555516703178
 21
33346.310181919813
 31
0.0
  0
LINE
  5
98
  8
HONTAIGAIKEI
 10
5275.7082116287393
 20
33318.727619576792
 30
0.0
 11
5249.6488739153756
 21
33318.727619576792
 31
0.0
  0
LINE
  5
99
  8
HONTAIGAIKEI
 10
5249.6488739153756
 20
33412.521262876282
 30
0.0
 11
5249.6488739153756
 21
33318.727619576792
 31
0.0
  0
LINE
  5
9A
  8
HONTAIGAIKEI
 10
5275.7082116287393
 20
33412.521262876282
 30
0.0
 11
5275.7082116287393
 21
33318.727619576792
 31
0.0
  0
ARC
  5
9B
  8
HONTAIGAIKEI
 10
5284.3946450137191
 20
33378.85639953753
 30
0.0
 40
60.75297774199862
 50
261.77970317449001
 51
33.650603522974251
  0
LINE
  5
9C
  8
HONTAIGAIKEI
 10
17926.529666604591
 20
33246.067715453857
 30
0.0
 11
17926.529666604591
 21
33312.521262876253
 31
0.0
  0
LINE
  5
9D
  8
HONTAIGAIKEI
 10
18042.12443701801
 20
33246.067715453857
 30
0.0
 11
17926.529666604591
 21
33246.067715453857
 31
0.0
  0
LINE
  5
9E
  8
HONTAIGAIKEI
 10
18042.12443701801
 20
33312.521262876253
 30
0.0
 11
18042.124437017988
 21
33112.521262876231
 31
0.0
  0
LINE
  5
9F
  8
HONTAIGAIKEI
 10
18042.12443701801
 20
33312.521262876253
 30
0.0
 11
17900.470328891221
 21
33312.521262876253
 31
0.0
  0
ARC
  5
A0
  8
TLINE
 10
9339.8659381696671
 20
34127.521262876253
 30
0.0
 40
20.0
 50
0.0
 51
90.0
  0
LINE
  5
A1
  8
TLINE
 10
9328.3775702011098
 20
34147.521262876253
 30
0.0
 11
9339.8659381696671
 21
34147.521262876253
 31
0.0
  0
ARC
  5
A2
  8
TLINE
 10
9649.1457111298405
 20
34127.521262876253
 30
0.0
 40
20.0
 50
90.0
 51
180.0
  0
ARC
  5
A3
  8
TLINE
 10
9119.0448831006106
 20
34217.521262876253
 30
0.0
 40
10.0
 50
90.0
 51
180.0
  0
ARC
  5
A4
  8
TLINE
 10
9088.642328694772
 20
34252.52126287626
 30
0.0
 40
10.0
 50
90.0
 51
180.0
  0
ARC
  5
A5
  8
TLINE
 10
10102.402098547491
 20
34157.52126287626
 30
0.0
 40
10.0
 50
270.0
 51
56.143059131002808
  0
ARC
  5
A6
  8
TLINE
 10
9790.2779649832992
 20
33692.276658912189
 30
0.0
 40
570.24460396406721
 50
56.143059131002808
 51
90.0
  0
ARC
  5
A7
  8
TLINE
 10
9790.2779649832992
 20
33692.276658912189
 30
0.0
 40
535.24460396406721
 50
58.26997482137358
 51
90.0
  0
LINE
  5
A8
  8
TLINE
 10
9109.0448831006124
 20
34189.149185956892
 30
0.0
 11
9109.0448831006124
 21
34217.521262876253
 31
0.0
  0
LINE
  5
A9
  8
TLINE
 10
9078.6423286947738
 20
34189.149185956892
 30
0.0
 11
9109.0448831006124
 21
34189.149185956892
 31
0.0
  0
LINE
  5
AA
  8
TLINE
 10
9078.6423286947738
 20
34252.52126287626
 30
0.0
 11
9078.6423286947738
 21
34189.149185956892
 31
0.0
  0
ARC
  5
AB
  8
TLINE
 10
9185.6701229912742
 20
34067.521262876253
 30
0.0
 40
160.0
 50
41.318677691145048
 51
90.0
  0
LINE
  5
AC
  8
TLINE
 10
9328.3775702011098
 20
34147.521262876253
 30
0.0
 11
9305.8379536284374
 21
34173.160708539159
 31
0.0
  0
LINE
  5
AD
  8
TLINE
 10
9359.8659381696671
 20
34117.547482647882
 30
0.0
 11
9359.8659381696671
 21
34127.521262876253
 31
0.0
  0
LINE
  5
AE
  8
TLINE
 10
9629.1457111298423
 20
34117.547482647882
 30
0.0
 11
9629.1457111298423
 21
34127.521262876253
 31
0.0
  0
LINE
  5
AF
  8
TLINE
 10
9359.8659381696671
 20
34117.547482647882
 30
0.0
 11
9629.1457111298423
 21
34117.547482647882
 31
0.0
  0
LINE
  5
B0
  8
TLINE
 10
9649.1457111298405
 20
34147.521262876253
 30
0.0
 11
10102.402098547491
 21
34147.521262876253
 31
0.0
  0
LINE
  5
B1
  8
TLINE
 10
9119.0448831006106
 20
34227.521262876253
 30
0.0
 11
9790.2779649832992
 21
34227.521262876253
 31
0.0
  0
LINE
  5
B2
  8
HONTAIGAIKEI
 10
9042.1244370179957
 20
34282.521262876253
 30
0.0
 11
9042.1244370179957
 21
34262.521262876253
 31
0.0
  0
LINE
  5
B3
  8
HONTAIGAIKEI
 10
9042.1244370179957
 20
34282.521262876253
 30
0.0
 11
9122.1244370179957
 21
34282.521262876253
 31
0.0
  0
LINE
  5
B4
  8
TLINE
 10
9042.1244370179793
 20
34502.521262876216
 30
0.0
 11
11622.63021610658
 21
34502.521262876216
 31
0.0
  0
LINE
  5
B5
  8
HONTAIGAIKEI
 10
9122.1244370179957
 20
34502.521262876216
 30
0.0
 11
9122.1244370179957
 21
34282.521262876253
 31
0.0
  0
ARC
  5
B6
  8
HONTAIGAIKEI
 10
12100.411872675881
 20
33316.546423017797
 30
0.0
 40
20.0
 50
0.0
 51
90.0
  0
LINE
  5
B7
  8
HONTAIGAIKEI
 10
12120.411872675881
 20
33312.521262876282
 30
0.0
 11
12120.411872675881
 21
33316.546423017797
 31
0.0
  0
LINE
  5
B8
  8
HONTAIGAIKEI
 10
11514.53823012143
 20
33312.521262876282
 30
0.0
 11
11542.124437017979
 21
33112.521262876253
 31
0.0
  0
ARC
  5
B9
  8
HONTAIGAIKEI
 10
11368.49172692526
 20
33324.53384294705
 30
0.0
 40
12.01258007076831
 50
90.0
 51
270.0
  0
LINE
  5
BA
  8
HONTAIGAIKEI
 10
12100.411872675881
 20
33336.546423017811
 30
0.0
 11
11368.491726925249
 21
33336.546423017811
 31
0.0
  0
LINE
  5
BB
  8
HONTAIGAIKEI
 10
12120.411872675881
 20
33247.478255997528
 30
0.0
 11
12120.411872675881
 21
33312.521262876282
 31
0.0
  0
LINE
  5
BC
  8
HONTAIGAIKEI
 10
12042.124437017979
 20
33247.478255997528
 30
0.0
 11
12120.411872675881
 21
33247.478255997528
 31
0.0
  0
LINE
  5
BD
  8
HONTAIGAIKEI
 10
12042.124437017979
 20
33312.521262876282
 30
0.0
 11
12042.124437017979
 21
33247.478255997528
 31
0.0
  0
LINE
  5
BE
  8
HONTAIGAIKEI
 10
11650.963477400401
 20
33528.260746723448
 30
0.0
 11
11484.7810599356
 21
33528.260746723477
 31
0.0
  0
LINE
  5
BF
  8
HONTAIGAIKEI
 10
11650.963477400401
 20
33575.995208776701
 30
0.0
 11
11478.19699620412
 21
33575.995208776701
 31
0.0
  0
LINE
  5
C0
  8
HONTAIGAIKEI
 10
12042.124437017979
 20
33528.260746723448
 30
0.0
 11
11770.40206789834
 21
33528.260746723448
 31
0.0
  0
LINE
  5
C1
  8
HONTAIGAIKEI
 10
12042.124437017979
 20
33575.995208776701
 30
0.0
 11
11770.40206789834
 21
33575.995208776701
 31
0.0
  0
LINE
  5
C2
  8
TLINE
 10
11733.45815258025
 20
33822.886054319773
 30
0.0
 11
11724.730130630491
 21
33734.358024826011
 31
0.0
  0
LINE
  5
C3
  8
TLINE
 10
11687.90739271848
 20
33822.886054319773
 30
0.0
 11
11696.635414668241
 21
33734.358024826011
 31
0.0
  0
ARC
  5
C4
  8
TLINE
 10
11710.68277264937
 20
33735.742960755313
 30
0.0
 40
14.11546364019159
 50
185.63062274072681
 51
354.36937725927322
  0
ARC
  5
C5
  8
TLINE
 10
11710.68277264937
 20
33857.248854864301
 30
0.0
 40
41.225234896359318
 50
303.53608797567182
 51
236.46391202432821
  0
LINE
  5
C6
  8
TLINE
 10
11854.00907373522
 20
34069.884154211322
 30
0.0
 11
11854.00907373522
 21
33796.495856663969
 31
0.0
  0
LINE
  5
C7
  8
TLINE
 10
11710.68277264937
 20
34117.618616264583
 30
0.0
 11
11801.89043586693
 21
34117.618616264583
 31
0.0
  0
LINE
  5
C8
  8
TLINE
 10
11801.89043586693
 20
34117.618616264583
 30
0.0
 11
11801.89043586693
 21
33774.798364613263
 31
0.0
  0
LINE
  5
C9
  8
TLINE
 10
11801.89043586693
 20
33774.798364613263
 30
0.0
 11
11728.71716361132
 21
33774.798364613263
 31
0.0
  0
LINE
  5
CA
  8
TLINE
 10
11710.68277264937
 20
34069.884154211322
 30
0.0
 11
11758.458231383591
 21
34069.884154211322
 31
0.0
  0
LINE
  5
CB
  8
TLINE
 10
11854.00907373522
 20
33796.495856663969
 30
0.0
 11
11801.89043586693
 21
33796.495856663969
 31
0.0
  0
LINE
  5
CC
  8
TLINE
 10
11758.458231383591
 20
34069.884154211322
 30
0.0
 11
11758.458231383591
 21
33796.495856663969
 31
0.0
  0
LINE
  5
CD
  8
TLINE
 10
11801.89043586693
 20
34069.884154211322
 30
0.0
 11
11854.00907373522
 21
34069.884154211322
 31
0.0
  0
LINE
  5
CE
  8
TLINE
 10
11758.458231383591
 20
33796.495856663969
 30
0.0
 11
11730.85633001948
 21
33796.495856663969
 31
0.0
  0
LINE
  5
CF
  8
TLINE
 10
11770.40206789834
 20
33774.798364613263
 30
0.0
 11
11770.40206789834
 21
33342.367554671648
 31
0.0
  0
LINE
  5
D0
  8
TLINE
 10
11770.40206789834
 20
33342.367554671648
 30
0.0
 11
11710.68277264937
 21
33342.367554671648
 31
0.0
  0
LINE
  5
D1
  8
TLINE
 10
11770.40206789834
 20
33342.367554671648
 30
0.0
 11
11770.40206789834
 21
33336.546423017811
 31
0.0
  0
LINE
  5
D2
  8
TLINE
 10
11785.603345101261
 20
33312.521262876282
 30
0.0
 11
11785.603345101261
 21
33264.256603747432
 31
0.0
  0
LINE
  5
D3
  8
TLINE
 10
11785.603345101261
 20
33264.256603747432
 30
0.0
 11
11710.68277264937
 21
33264.256603747432
 31
0.0
  0
LINE
  5
D4
  8
TLINE
 10
11768.230440772901
 20
33264.256603747432
 30
0.0
 11
11844.23682678753
 21
33144.920438385161
 31
0.0
  0
LINE
  5
D5
  8
TLINE
 10
11844.23682678753
 20
33144.920438385161
 30
0.0
 11
11710.68277264937
 21
33144.920438385161
 31
0.0
  0
LINE
  5
D6
  8
TLINE
 10
11577.12871851122
 20
33144.920438385161
 30
0.0
 11
11710.68277264937
 21
33144.920438385161
 31
0.0
  0
LINE
  5
D7
  8
TLINE
 10
11653.13510452584
 20
33264.256603747432
 30
0.0
 11
11577.12871851122
 21
33144.920438385161
 31
0.0
  0
LINE
  5
D8
  8
TLINE
 10
11635.762200197471
 20
33264.256603747432
 30
0.0
 11
11710.68277264937
 21
33264.256603747432
 31
0.0
  0
LINE
  5
D9
  8
TLINE
 10
11635.762200197471
 20
33312.521262876282
 30
0.0
 11
11635.762200197471
 21
33264.256603747432
 31
0.0
  0
LINE
  5
DA
  8
TLINE
 10
11650.963477400401
 20
33342.367554671648
 30
0.0
 11
11650.963477400401
 21
33336.546423017811
 31
0.0
  0
LINE
  5
DB
  8
TLINE
 10
11650.963477400401
 20
33342.367554671648
 30
0.0
 11
11710.68277264937
 21
33342.367554671648
 31
0.0
  0
LINE
  5
DC
  8
TLINE
 10
11650.963477400401
 20
33774.798364613263
 30
0.0
 11
11650.963477400401
 21
33342.367554671648
 31
0.0
  0
LINE
  5
DD
  8
TLINE
 10
11662.907313915141
 20
33796.495856663969
 30
0.0
 11
11690.509215279249
 21
33796.495856663969
 31
0.0
  0
LINE
  5
DE
  8
TLINE
 10
11619.475109431811
 20
34069.884154211322
 30
0.0
 11
11567.35647156352
 21
34069.884154211322
 31
0.0
  0
LINE
  5
DF
  8
TLINE
 10
11662.907313915141
 20
34069.884154211322
 30
0.0
 11
11662.907313915141
 21
33796.495856663969
 31
0.0
  0
LINE
  5
E0
  8
TLINE
 10
11567.35647156352
 20
33796.495856663969
 30
0.0
 11
11619.475109431811
 21
33796.495856663969
 31
0.0
  0
LINE
  5
E1
  8
TLINE
 10
11567.35647156352
 20
34069.884154211322
 30
0.0
 11
11567.35647156352
 21
33796.495856663969
 31
0.0
  0
LINE
  5
E2
  8
TLINE
 10
11710.68277264937
 20
34069.884154211322
 30
0.0
 11
11662.907313915141
 21
34069.884154211322
 31
0.0
  0
LINE
  5
E3
  8
TLINE
 10
11619.475109431811
 20
33774.798364613263
 30
0.0
 11
11692.64838168741
 21
33774.798364613263
 31
0.0
  0
LINE
  5
E4
  8
TLINE
 10
11619.475109431811
 20
34117.618616264583
 30
0.0
 11
11619.475109431811
 21
33774.798364613263
 31
0.0
  0
LINE
  5
E5
  8
TLINE
 10
11710.68277264937
 20
34117.618616264583
 30
0.0
 11
11619.475109431811
 21
34117.618616264583
 31
0.0
  0
ARC
  5
E6
  8
HONTAIGAIKEI
 10
6594.0651210137767
 20
35482.521262876253
 30
0.0
 40
150.0
 50
9.0058008344266511
 51
90.0
  0
LINE
  5
E7
  8
HONTAIGAIKEI
 10
6852.1244370179948
 20
34812.521262876282
 30
0.0
 11
6742.2159956441501
 21
35506.001432089019
 31
0.0
  0
LINE
  5
E8
  8
HONTAIGAIKEI
 10
6822.1244370179957
 20
34398.817986400158
 30
0.0
 11
6838.3944925485594
 21
34398.817986400158
 31
0.0
  0
ARC
  5
E9
  8
HONTAIGAIKEI
 10
6822.1244370179957
 20
34428.817986400158
 30
0.0
 40
30.0
 50
270.0
 51
0.0
  0
LINE
  5
EA
  8
HONTAIGAIKEI
 10
6852.1244370179948
 20
34812.521262876253
 30
0.0
 11
6852.1244370179948
 21
34428.817986400158
 31
0.0
  0
ARC
  5
EB
  8
HONTAIGAIKEI
 10
6838.3944925485594
 20
34378.817986400158
 30
0.0
 40
20.0
 50
0.0
 51
90.0
  0
CIRCLE
  5
EC
  8
TLINE
 10
6887.7112333916921
 20
34118.920441237598
 30
0.0
 40
10.848746025360009
  0
ARC
  5
ED
  8
HONTAIGAIKEI
 10
6889.1996013602657
 20
34247.312071832828
 30
0.0
 40
30.0
 50
0.0
 51
90.0
  0
LINE
  5
EE
  8
HONTAIGAIKEI
 10
6817.1244370179957
 20
34164.485154085793
 30
0.0
 11
6892.5198117714781
 21
34164.485154085793
 31
0.0
  0
LINE
  5
EF
  8
HONTAIGAIKEI
 10
6919.1996013602657
 20
34247.312071832828
 30
0.0
 11
6919.1996013602657
 21
34102.285668144992
 31
0.0
  0
LINE
  5
F0
  8
HONTAIGAIKEI
 10
6858.3944925485594
 20
34277.312071832828
 30
0.0
 11
6889.1996013602657
 21
34277.312071832828
 31
0.0
  0
LINE
  5
F1
  8
HONTAIGAIKEI
 10
6858.3944925485594
 20
34378.817986400158
 30
0.0
 11
6858.3944925485594
 21
34277.312071832828
 31
0.0
  0
LINE
  5
F2
  8
HONTAIGAIKEI
 10
6817.1244370180102
 20
34398.817986400158
 30
0.0
 11
6822.1244370179957
 21
34398.817986400158
 31
0.0
  0
LINE
  5
F3
  8
HONTAIGAIKEI
 10
6940.9156848227331
 20
34051.658236338728
 30
0.0
 11
6940.9156848227331
 21
33925.437799986481
 31
0.0
  0
LINE
  5
F4
  8
HONTAIGAIKEI
 10
6875.7673968769413
 20
34203.54061931873
 30
0.0
 11
6940.9156848227331
 21
34051.658236338728
 31
0.0
  0
LINE
  5
F5
  8
HONTAIGAIKEI
 10
6817.1244370179957
 20
34203.54061931873
 30
0.0
 11
6875.7673968769413
 21
34203.54061931873
 31
0.0
  0
ARC
  5
F6
  8
HONTAIGAIKEI
 10
5190.7013299562568
 20
33370.159510428261
 30
0.0
 40
10.0
 50
270.0
 51
0.0
  0
ARC
  5
F7
  8
HONTAIGAIKEI
 10
5105.0785369965488
 20
33370.159510428261
 30
0.0
 40
10.0
 50
228.03723643622109
 51
270.0
  0
ARC
  5
F8
  8
HONTAIGAIKEI
 10
5092.9179256876123
 20
33381.094671926869
 30
0.0
 40
10.0
 50
143.9630053523488
 51
228.03723643622109
  0
LINE
  5
F9
  8
HONTAIGAIKEI
 10
5084.8315526324468
 20
33386.977746872231
 30
0.0
 11
5103.4152140582619
 21
33412.52126287626
 31
0.0
  0
LINE
  5
FA
  8
HONTAIGAIKEI
 10
5098.3920620321178
 20
33362.723715074011
 30
0.0
 11
5086.2314507231822
 21
33373.658876572619
 31
0.0
  0
LINE
  5
FB
  8
HONTAIGAIKEI
 10
5190.7013299562568
 20
33360.159510428261
 30
0.0
 11
5105.0785369965488
 21
33360.159510428261
 31
0.0
  0
LINE
  5
FC
  8
HONTAIGAIKEI
 10
5200.7013299562423
 20
33412.521262876282
 30
0.0
 11
5200.7013299562568
 21
33370.159510428261
 31
0.0
  0
ARC
  5
FD
  8
TLINE
 10
5560.4933100895323
 20
33745.050158794009
 30
0.0
 40
20.0
 50
196.30613854947541
 51
250.3909813600963
  0
LINE
  5
FE
  8
TLINE
 10
5533.5778626513957
 20
33765.824418759439
 30
0.0
 11
5541.2978057610344
 21
33739.43476801736
 31
0.0
  0
ARC
  5
FF
  8
TLINE
 10
6197.9015013493372
 20
33946.642411638248
 30
0.0
 40
9.2094242213280655
 50
356.18238121563132
 51
145.2554546533043
  0
LINE
  5
100
  8
TLINE
 10
6303.6999832205356
 20
34002.218719507771
 30
0.0
 11
6481.9275263197378
 21
33905.819178022117
 31
0.0
  0
ARC
  5
101
  8
TLINE
 10
6632.2235086241753
 20
34004.14073488515
 30
0.0
 40
328.52914769735082
 50
180.33520312735001
 51
201.28452008910821
  0
LINE
  5
102
  8
TLINE
 10
6405.5688506214838
 20
33819.249722337699
 30
0.0
 11
6481.9275263197378
 21
33905.819178022117
 31
0.0
  0
LINE
  5
103
  8
TLINE
 10
5983.6873879801024
 20
33991.818950906279
 30
0.0
 11
5991.4014847043327
 21
33979.275382595748
 31
0.0
  0
LINE
  5
104
  8
TLINE
 10
5983.6873879801024
 20
33991.818950906279
 30
0.0
 11
5977.1222354020174
 21
33978.420595848729
 31
0.0
  0
LINE
  5
105
  8
TLINE
 10
5967.8676888270602
 20
33982.260247732367
 30
0.0
 11
5720.2597858855333
 21
33967.544940643893
 31
0.0
  0
LINE
  5
106
  8
TLINE
 10
5982.695492742776
 20
34012.52126287626
 30
0.0
 11
6002.8844451166406
 21
33979.692856353271
 31
0.0
  0
LINE
  5
107
  8
TLINE
 10
5982.695492742776
 20
34012.52126287626
 30
0.0
 11
5965.5107208744339
 21
33977.450078720627
 31
0.0
  0
LINE
  5
108
  8
TLINE
 10
5578.2970120583232
 20
33761.434904191497
 30
0.0
 11
5533.5778626513957
 21
33765.824418759439
 31
0.0
  0
ARC
  5
109
  8
TLINE
 10
5594.6439436206019
 20
33971.005734854472
 30
0.0
 40
125.6635067332364
 50
272.02881235437292
 51
358.42186501480489
  0
LINE
  5
10A
  8
TLINE
 10
5676.7126534217268
 20
33861.872389538912
 30
0.0
 11
5654.8001296758484
 21
33860.676454045657
 31
0.0
  0
LINE
  5
10B
  8
TLINE
 10
6481.9275263197378
 20
33905.819178022117
 30
0.0
 11
6308.499681451769
 21
33896.353882394818
 31
0.0
  0
LINE
  5
10C
  8
TLINE
 10
6505.8535410087961
 20
33874.172698039103
 30
0.0
 11
6644.1791025992306
 21
33874.172698039103
 31
0.0
  0
ARC
  5
10D
  8
TLINE
 10
6503.3396933692311
 20
33817.053350093542
 30
0.0
 40
30.0
 50
273.62236472999842
 51
41.936789132941243
  0
LINE
  5
10E
  8
TLINE
 10
6505.2350958491334
 20
33787.113285807718
 30
0.0
 11
6438.8668181836147
 21
33782.911738447183
 31
0.0
  0
ARC
  5
10F
  8
TLINE
 10
6591.0690750304102
 20
33895.870160263526
 30
0.0
 40
87.934447775434592
 50
129.1323262288206
 51
221.9367891329413
  0
LINE
  5
110
  8
TLINE
 10
6477.0562810603042
 20
34012.52126287626
 30
0.0
 11
6000.1265296897936
 21
33984.177386660391
 31
0.0
  0
ARC
  5
111
  8
TLINE
 10
5476.2055041126623
 20
33927.944099319197
 30
0.0
 40
20.0
 50
343.2872343355528
 51
90.0
  0
ARC
  5
112
  8
TLINE
 10
5436.0972015041516
 20
33794.364302466973
 30
0.0
 40
20.0
 50
270.0
 51
343.2872343355528
  0
ARC
  5
113
  8
TLINE
 10
5245.1268170852891
 20
33794.364302466973
 30
0.0
 40
20.0
 50
180.0
 51
270.0
  0
ARC
  5
114
  8
TLINE
 10
5245.1268170852891
 20
33927.944099319197
 30
0.0
 40
20.0
 50
90.0
 51
180.0
  0
LINE
  5
115
  8
TLINE
 10
5455.2523704305386
 20
33788.612824100332
 30
0.0
 11
5495.3606730390338
 21
33922.192620952563
 31
0.0
  0
LINE
  5
116
  8
TLINE
 10
5245.1268170852891
 20
33774.364302466973
 30
0.0
 11
5436.0972015041516
 21
33774.364302466973
 31
0.0
  0
LINE
  5
117
  8
TLINE
 10
5225.1268170852891
 20
33927.944099319197
 30
0.0
 11
5225.1268170852891
 21
33794.364302466973
 31
0.0
  0
LINE
  5
118
  8
TLINE
 10
5476.2055041126623
 20
33947.944099319197
 30
0.0
 11
5245.1268170852891
 21
33947.944099319197
 31
0.0
  0
LINE
  5
119
  8
HONTAIGAIKEI
 10
5513.9508174977127
 20
34052.091977430537
 30
0.0
 11
5513.9508174977127
 21
34082.521262876253
 31
0.0
  0
LINE
  5
11A
  8
HONTAIGAIKEI
 10
5288.1033895151959
 20
34052.091977430537
 30
0.0
 11
5513.9508174977127
 21
34052.091977430537
 31
0.0
  0
LINE
  5
11B
  8
HONTAIGAIKEI
 10
5288.1033895151959
 20
34082.521262876253
 30
0.0
 11
5288.1033895151959
 21
34052.091977430537
 31
0.0
  0
LINE
  5
11C
  8
HONTAIGAIKEI
 10
6729.4218271976324
 20
33433.713932571321
 30
0.0
 11
6566.0276602547428
 21
33414.593962889572
 31
0.0
  0
ARC
  5
11D
  8
HONTAIGAIKEI
 10
6958.1043721535416
 20
33520.545892800561
 30
0.0
 40
231.858055208368
 50
143.22057271358679
 51
189.49358442411199
  0
ARC
  5
11E
  8
HONTAIGAIKEI
 10
6729.4218271976324
 20
33453.713932571321
 30
0.0
 40
20.0
 50
180.0
 51
270.0
  0
ARC
  5
11F
  8
HONTAIGAIKEI
 10
6729.4218271976324
 20
33462.303881901636
 30
0.0
 40
20.0
 50
90.0
 51
180.0
  0
LINE
  5
120
  8
HONTAIGAIKEI
 10
6729.4218271976324
 20
33433.713932571321
 30
0.0
 11
6799.8131124881229
 21
33433.713932571321
 31
0.0
  0
LINE
  5
121
  8
HONTAIGAIKEI
 10
6709.4218271976324
 20
33462.303881901636
 30
0.0
 11
6709.4218271976324
 21
33453.713932571321
 31
0.0
  0
LINE
  5
122
  8
HONTAIGAIKEI
 10
6800.0766773638934
 20
33482.303881901636
 30
0.0
 11
6729.4218271976324
 21
33482.303881901636
 31
0.0
  0
ARC
  5
123
  8
HONTAIGAIKEI
 10
6878.8073740406426
 20
33457.581136065361
 30
0.0
 40
82.521129178479896
 50
138.25854293042411
 51
221.85298083074639
  0
LINE
  5
124
  8
HONTAIGAIKEI
 10
6772.3984962029972
 20
33659.367668479223
 30
0.0
 11
6873.2859412554708
 21
33659.367668479223
 31
0.0
  0
LINE
  5
125
  8
HONTAIGAIKEI
 10
6741.9926119775218
 20
33793.200162274297
 30
0.0
 11
6772.3984962029972
 21
33659.367668479223
 31
0.0
  0
ARC
  5
126
  8
HONTAIGAIKEI
 10
6997.7869658467716
 20
33813.200162274297
 30
0.0
 40
20.0
 50
270.0
 51
0.0
  0
LINE
  5
127
  8
HONTAIGAIKEI
 10
6993.3597849983671
 20
33512.521262876253
 30
0.0
 11
6993.3597849983671
 21
33402.521262876282
 31
0.0
  0
LINE
  5
128
  8
HONTAIGAIKEI
 10
6894.0087388786242
 20
33512.521262876253
 30
0.0
 11
6894.0087388786242
 21
33402.521262876282
 31
0.0
  0
LINE
  5
129
  8
HONTAIGAIKEI
 10
6915.288370470782
 20
33793.200162274297
 30
0.0
 11
6980.4366354314589
 21
33632.521262876282
 31
0.0
  0
LINE
  5
12A
  8
HONTAIGAIKEI
 10
6837.1104332028935
 20
33793.200162274297
 30
0.0
 11
6880.5426420351623
 21
33632.521262876282
 31
0.0
  0
ARC
  5
12B
  8
HONTAIGAIKEI
 10
11020.9224982249
 20
33394.007489035321
 30
0.0
 40
130.29652992132469
 50
237.95657500881109
 51
118.5308967890097
  0
CIRCLE
  5
12C
  8
HONTAIGAIKEI
 10
19242.124437017988
 20
33192.521262876282
 30
0.0
 40
84.319850901698359
  0
ARC
  5
12D
  8
HONTAIGAIKEI
 10
19242.124437017988
 20
33192.521262876282
 30
0.0
 40
145.07280456418439
 50
114.43026657144711
 51
245.56973342855289
  0
LINE
  5
12E
  8
HONTAIGAIKEI
 62
     2
 10
19182.124437017988
 20
33060.437506781462
 30
0.0
 11
19182.124437017988
 21
33012.521262876282
 31
0.0
  0
LINE
  5
12F
  8
HONTAIGAIKEI
 62
     2
 10
19302.124437017988
 20
33060.437506781433
 30
0.0
 11
19302.124437017988
 21
33012.521262876282
 31
0.0
  0
LINE
  5
130
  8
HONTAIGAIKEI
 62
     2
 10
19182.124437017988
 20
33412.52126287626
 30
0.0
 11
19182.124437017988
 21
33324.60501897108
 31
0.0
  0
LINE
  5
131
  8
HONTAIGAIKEI
 62
     2
 10
19302.124437017988
 20
33412.52126287626
 30
0.0
 11
19302.124437017988
 21
33324.60501897108
 31
0.0
  0
ARC
  5
132
  8
HONTAIGAIKEI
 10
19242.124437017988
 20
33192.521262876282
 30
0.0
 40
145.07280456418439
 50
294.43026657144719
 51
65.569733428552837
  0
LINE
  5
133
  8
CENTER
 10
19045.270758488408
 20
33192.521262876253
 30
0.0
 11
19436.160444827881
 21
33192.521262876282
 31
0.0
  0
LINE
  5
134
  8
HONTAIGAIKEI
 10
19332.124437018021
 20
33432.521262876253
 30
0.0
 11
19458.419468173961
 21
33432.521262876253
 31
0.0
  0
ARC
  5
135
  8
HONTAIGAIKEI
 10
19172.124437018021
 20
33432.521262876253
 30
0.0
 40
20.0
 50
180.0
 51
270.0
  0
ARC
  5
136
  8
HONTAIGAIKEI
 10
19312.124437018021
 20
33432.521262876253
 30
0.0
 40
20.0
 50
270.0
 51
0.0
  0
ARC
  5
137
  8
HONTAIGAIKEI
 10
19312.124437018021
 20
33642.521262876253
 30
0.0
 40
20.0
 50
0.0
 51
90.0
  0
ARC
  5
138
  8
HONTAIGAIKEI
 10
19172.124437018021
 20
33642.521262876253
 30
0.0
 40
20.0
 50
90.0
 51
180.0
  0
LINE
  5
139
  8
HONTAIGAIKEI
 62
     2
 10
19152.124437018021
 20
33642.521262876253
 30
0.0
 11
19152.124437018021
 21
33432.521262876253
 31
0.0
  0
LINE
  5
13A
  8
HONTAIGAIKEI
 62
     2
 10
19332.124437018021
 20
33642.521262876253
 30
0.0
 11
19332.124437018021
 21
33432.521262876253
 31
0.0
  0
LINE
  5
13B
  8
HONTAIGAIKEI
 10
19172.124437018021
 20
33412.52126287626
 30
0.0
 11
19312.124437018021
 21
33412.52126287626
 31
0.0
  0
LINE
  5
13C
  8
HONTAIGAIKEI
 10
7467.1244370180111
 20
34362.521262876282
 30
0.0
 11
7467.1244370179957
 21
34062.521262876282
 31
0.0
  0
LINE
  5
13D
  8
HONTAIGAIKEI
 10
7217.1244370179957
 20
34362.521262876253
 30
0.0
 11
7467.1244370180111
 21
34362.521262876282
 31
0.0
  0
LINE
  5
13E
  8
HONTAIGAIKEI
 10
6852.1244370179948
 20
34651.215258498298
 30
0.0
 11
7017.1244370179957
 21
34651.215258498298
 31
0.0
  0
LINE
  5
13F
  8
HONTAIGAIKEI
 10
7017.1244370179957
 20
34651.215258498298
 30
0.0
 11
7017.1244370179957
 21
34612.521262876253
 31
0.0
  0
LINE
  5
140
  8
HONTAIGAIKEI
 10
6852.1244370179948
 20
34612.521262876253
 30
0.0
 11
7017.1244370179957
 21
34612.521262876253
 31
0.0
  0
LINE
  5
141
  8
TLINE
 10
8204.1384513966514
 20
33212.52126287626
 30
0.0
 11
8382.2104109056418
 21
33282.521262876282
 31
0.0
  0
LINE
  5
142
  8
TLINE
 10
7481.4289064294026
 20
33212.52126287626
 30
0.0
 11
8204.1384513966514
 21
33212.52126287626
 31
0.0
  0
LINE
  5
143
  8
TLINE
 10
7263.1821831252782
 20
33162.52126287626
 30
0.0
 11
7481.4289064294026
 21
33212.52126287626
 31
0.0
  0
LINE
  5
144
  8
TLINE
 10
7533.5475442977222
 20
33282.521262876282
 30
0.0
 11
7533.5475442977222
 21
33212.52126287626
 31
0.0
  0
LINE
  5
145
  8
TLINE
 10
7507.4882065843449
 20
33282.521262876282
 30
0.0
 11
7507.4882065843449
 21
33212.52126287626
 31
0.0
  0
LINE
  5
146
  8
TLINE
 10
7481.4289064294026
 20
33282.521262876282
 30
0.0
 11
7481.4289064294026
 21
33212.52126287626
 31
0.0
  0
LINE
  5
147
  8
TLINE
 10
7263.1821831252782
 20
33282.521262876282
 30
0.0
 11
7263.1821831252782
 21
33162.52126287626
 31
0.0
  0
ARC
  5
148
  8
TLINE
 10
6708.76904557941
 20
33222.521262876289
 30
0.0
 40
60.000000000007283
 50
90.0
 51
270.0
  0
LINE
  5
149
  8
TLINE
 10
6708.76904557941
 20
33162.52126287626
 30
0.0
 11
7263.1821831252782
 21
33162.52126287626
 31
0.0
  0
ARC
  5
14A
  8
HONTAIGAIKEI
 10
7047.1244370179957
 20
33905.878198832681
 30
0.0
 40
40.0
 50
270.0
 51
0.0
  0
LINE
  5
14B
  8
HONTAIGAIKEI
 10
7047.1244370179957
 20
33865.878198832681
 30
0.0
 11
7017.7869658467707
 21
33865.878198832681
 31
0.0
  0
LINE
  5
14C
  8
HONTAIGAIKEI
 10
7087.1244370179948
 20
34032.521262876253
 30
0.0
 11
7087.1244370179948
 21
33905.878198832681
 31
0.0
  0
LINE
  5
14D
  8
HONTAIGAIKEI
 10
7157.1244370179948
 20
33842.521262876253
 30
0.0
 11
7195.3413625284038
 21
33842.521262876253
 31
0.0
  0
LINE
  5
14E
  8
HONTAIGAIKEI
 10
7236.5971058913156
 20
33842.521262876253
 30
0.0
 11
7641.6216014539714
 21
33842.521262876253
 31
0.0
  0
LINE
  5
14F
  8
HONTAIGAIKEI
 10
7017.7869658467707
 20
33842.521262876253
 30
0.0
 11
7117.1244370179957
 21
33842.521262876253
 31
0.0
  0
LINE
  5
150
  8
HONTAIGAIKEI
 10
6741.9926119775218
 20
33793.200162274297
 30
0.0
 11
6477.0562810603042
 21
34012.52126287626
 31
0.0
  0
LINE
  5
151
  8
HONTAIGAIKEI
 10
6997.7869658467716
 20
33793.200162274297
 30
0.0
 11
6741.9926119775218
 21
33793.200162274297
 31
0.0
  0
LINE
  5
152
  8
HONTAIGAIKEI
 10
7017.7869658467707
 20
33873.471431113052
 30
0.0
 11
7017.7869658467707
 21
33813.200162274297
 31
0.0
  0
LINE
  5
153
  8
HONTAIGAIKEI
 10
6817.1244370179957
 20
34012.52126287626
 30
0.0
 11
7017.7869658467707
 21
33873.471431113052
 31
0.0
  0
LINE
  5
154
  8
HONTAIGAIKEI
 10
9924.5018141114451
 20
33766.04458444281
 30
0.0
 11
9894.5018141114451
 21
33766.04458444281
 31
0.0
  0
LINE
  5
155
  8
HONTAIGAIKEI
 10
9609.7470599245753
 20
33766.04458444281
 30
0.0
 11
9639.7470599245753
 21
33766.04458444281
 31
0.0
  0
LINE
  5
156
  8
HONTAIGAIKEI
 10
9609.7470599245753
 20
33766.04458444281
 30
0.0
 11
9609.7470599245753
 21
33665.786554937309
 31
0.0
  0
LINE
  5
157
  8
HONTAIGAIKEI
 10
9924.5018141114451
 20
33766.04458444281
 30
0.0
 11
9924.5018141114451
 21
33657.108571215533
 31
0.0
  0
LINE
  5
158
  8
HONTAIGAIKEI
 10
9673.3036691624038
 20
33162.52126287626
 30
0.0
 11
9860.9452048736166
 21
33162.52126287626
 31
0.0
  0
LINE
  5
159
  8
HONTAIGAIKEI
 10
11542.124437017959
 20
33112.521262876253
 30
0.0
 11
18042.124437017988
 21
33112.521262876282
 31
0.0
  0
LINE
  5
15A
  8
HONTAIGAIKEI
 10
9642.6222191956367
 20
33258.866006236123
 30
0.0
 11
9673.3036691624038
 21
33162.52126287626
 31
0.0
  0
LINE
  5
15B
  8
HONTAIGAIKEI
 10
9890.2762887413173
 20
33254.625637042511
 30
0.0
 11
9860.9452048736166
 21
33162.52126287626
 31
0.0
  0
ARC
  5
15C
  8
HONTAIGAIKEI
 10
9767.1244370179975
 20
33420.149026529543
 30
0.0
 40
368.60376175417599
 50
69.783575200390644
 51
110.2164247996093
  0
LINE
  5
15D
  8
HONTAIGAIKEI
 10
9894.5018141114451
 20
33766.04458444281
 30
0.0
 11
9894.5018141114451
 21
33583.885185643769
 31
0.0
  0
LINE
  5
15E
  8
HONTAIGAIKEI
 10
9639.7470599245753
 20
33766.04458444281
 30
0.0
 11
9639.7470599245753
 21
33592.563169365523
 31
0.0
  0
CIRCLE
  5
15F
  8
HONTAIGAIKEI
 10
9767.1244370179975
 20
33420.149026529543
 30
0.0
 40
51.367867353759912
  0
LINE
  5
160
  8
HONTAIGAIKEI
 10
11065.59199517894
 20
33591.437299699879
 30
0.0
 11
11122.133050064051
 21
33591.437299699879
 31
0.0
  0
LINE
  5
161
  8
HONTAIGAIKEI
 10
10937.210056668589
 20
33591.437299699843
 30
0.0
 11
11026.03190306794
 21
33591.437299699879
 31
0.0
  0
LINE
  5
162
  8
HONTAIGAIKEI
 10
10477.02079013908
 20
34053.539338469804
 30
0.0
 11
10405.38477264118
 21
34055.768706449977
 31
0.0
  0
LINE
  5
163
  8
HONTAIGAIKEI
 10
10992.71759441398
 20
33895.166345414058
 30
0.0
 11
10477.02079013908
 21
34053.539338469804
 31
0.0
  0
LINE
  5
164
  8
HONTAIGAIKEI
 10
11008.61125397656
 20
33860.537652311177
 30
0.0
 11
10992.71759441398
 21
33895.166345414058
 31
0.0
  0
LINE
  5
165
  8
HONTAIGAIKEI
 10
11008.61125397656
 20
33860.537652311214
 30
0.0
 11
11252.41433968373
 21
33780.796103015629
 31
0.0
  0
LINE
  5
166
  8
HONTAIGAIKEI
 10
11252.41433968373
 20
33530.691482373717
 30
0.0
 11
11252.41433968373
 21
33780.796103015629
 31
0.0
  0
LINE
  5
167
  8
HONTAIGAIKEI
 10
11200.30182383586
 20
33530.691482373717
 30
0.0
 11
11252.41433968373
 21
33530.691482373717
 31
0.0
  0
LINE
  5
168
  8
HONTAIGAIKEI
 10
11122.133050064051
 20
33591.437299699879
 30
0.0
 11
11200.30182383586
 21
33530.691482373717
 31
0.0
  0
LINE
  5
169
  8
HONTAIGAIKEI
 10
8517.1244370179957
 20
33591.437299699879
 30
0.0
 11
8594.1339922906809
 21
33591.437299699879
 31
0.0
  0
LINE
  5
16A
  8
HONTAIGAIKEI
 10
10354.55912341616
 20
34002.521262876253
 30
0.0
 11
10354.55912341616
 21
33958.951113391318
 31
0.0
  0
LINE
  5
16B
  8
HONTAIGAIKEI
 10
10306.78933600149
 20
34002.521262876253
 30
0.0
 11
10306.78933600149
 21
33951.340495535667
 31
0.0
  0
LINE
  5
16C
  8
HONTAIGAIKEI
 10
10085.311124868789
 20
34002.521262876253
 30
0.0
 11
10085.311124868789
 21
33842.521262876253
 31
0.0
  0
LINE
  5
16D
  8
HONTAIGAIKEI
 10
10141.76636914988
 20
34002.521262876253
 30
0.0
 11
10141.76636914988
 21
33888.6283248486
 31
0.0
  0
LINE
  5
16E
  8
HONTAIGAIKEI
 10
8997.0294865075884
 20
34002.521262876253
 30
0.0
 11
8997.0294865075884
 21
33958.731248694588
 31
0.0
  0
LINE
  5
16F
  8
HONTAIGAIKEI
 10
8901.4899116782217
 20
34002.521262876253
 30
0.0
 11
8901.4899116782217
 21
33958.731248694588
 31
0.0
  0
LINE
  5
170
  8
HONTAIGAIKEI
 10
8873.262289537688
 20
33958.731248694588
 30
0.0
 11
8873.262289537688
 21
33914.181247310276
 31
0.0
  0
LINE
  5
171
  8
HONTAIGAIKEI
 10
10008.880854666389
 20
33786.691651158988
 30
0.0
 11
9528.1175053393563
 21
33786.691651158988
 31
0.0
  0
LINE
  5
172
  8
HONTAIGAIKEI
 10
10008.880854666389
 20
33958.731248694588
 30
0.0
 11
10008.880854666389
 21
33786.691651158988
 31
0.0
  0
LINE
  5
173
  8
HONTAIGAIKEI
 10
8771.093105222757
 20
33958.731248694588
 30
0.0
 11
9000.6798290619081
 21
33958.731248694588
 31
0.0
  0
LINE
  5
174
  8
HONTAIGAIKEI
 10
8648.7527739139223
 20
33842.521262876282
 30
0.0
 11
8648.7527739139223
 21
34062.521262876253
 31
0.0
  0
LINE
  5
175
  8
HONTAIGAIKEI
 10
8625.0751304743935
 20
33842.521262876282
 30
0.0
 11
8648.7527739139223
 21
33842.521262876282
 31
0.0
  0
LINE
  5
176
  8
HONTAIGAIKEI
 10
8625.0751304743935
 20
33727.816326916887
 30
0.0
 11
8625.0751304743935
 21
33700.345833320993
 31
0.0
  0
LINE
  5
177
  8
HONTAIGAIKEI
 10
8697.6082622161084
 20
33842.521262876282
 30
0.0
 11
8763.5883588036122
 21
33842.521262876282
 31
0.0
  0
LINE
  5
178
  8
HONTAIGAIKEI
 10
8749.9280283317967
 20
34002.521262876253
 30
0.0
 11
8558.8488035562514
 21
33700.345833320993
 31
0.0
  0
LINE
  5
179
  8
HONTAIGAIKEI
 10
8625.0751304743935
 20
33965.023976010008
 30
0.0
 11
8625.0751304743935
 21
33805.077097579902
 31
0.0
  0
LINE
  5
17A
  8
HONTAIGAIKEI
 10
8546.9063567025769
 20
33965.023976010008
 30
0.0
 11
8625.0751304743935
 21
33965.023976010008
 31
0.0
  0
LINE
  5
17B
  8
HONTAIGAIKEI
 10
8546.9063567025769
 20
33700.345833320993
 30
0.0
 11
8546.9063567025769
 21
33965.023976010008
 31
0.0
  0
LINE
  5
17C
  8
HONTAIGAIKEI
 10
8625.0751304743935
 20
33700.345833320993
 30
0.0
 11
8546.9063567025769
 21
33700.345833320993
 31
0.0
  0
LINE
  5
17D
  8
HONTAIGAIKEI
 10
8798.7835166339828
 20
34002.521262876253
 30
0.0
 11
8607.7042918584375
 21
33700.345833320993
 31
0.0
  0
LINE
  5
17E
  8
TLINE
 10
8272.6696626703088
 20
33436.860975339921
 30
0.0
 11
8272.6696626703088
 21
33402.521262876282
 31
0.0
  0
LINE
  5
17F
  8
TLINE
 10
8292.2118655028644
 20
33438.43482055291
 30
0.0
 11
8292.2118655028644
 21
33402.521262876282
 31
0.0
  0
LINE
  5
180
  8
TLINE
 10
8190.158160465292
 20
33436.860975339921
 30
0.0
 11
8190.158160465292
 21
33402.521262876282
 31
0.0
  0
LINE
  5
181
  8
TLINE
 10
8209.7003632978485
 20
33436.860975339921
 30
0.0
 11
8209.7003632978485
 21
33402.521262876282
 31
0.0
  0
LINE
  5
182
  8
TLINE
 10
7514.8668186594914
 20
33436.860975339921
 30
0.0
 11
7514.8668186594914
 21
33402.521262876282
 31
0.0
  0
LINE
  5
183
  8
TLINE
 10
7534.409021492047
 20
33436.860975339921
 30
0.0
 11
7534.409021492047
 21
33402.521262876282
 31
0.0
  0
LINE
  5
184
  8
TLINE
 10
7449.7261926288666
 20
33436.860975339921
 30
0.0
 11
7449.7261926288666
 21
33402.521262876282
 31
0.0
  0
LINE
  5
185
  8
TLINE
 10
7430.1839897962964
 20
33436.860975339921
 30
0.0
 11
7430.1839897962964
 21
33402.521262876282
 31
0.0
  0
LINE
  5
186
  8
HONTAIGAIKEI
 10
7463.4070303766957
 20
33512.521262876253
 30
0.0
 11
7463.4070303766821
 21
33436.860975339921
 31
0.0
  0
LINE
  5
187
  8
HONTAIGAIKEI
 10
7502.4913984833865
 20
33512.521262876253
 30
0.0
 11
7502.4913984834011
 21
33436.860975339921
 31
0.0
  0
LINE
  5
188
  8
HONTAIGAIKEI
 10
8262.4655691523985
 20
33512.521262876253
 30
0.0
 11
8262.4655691523985
 21
33436.860975339921
 31
0.0
  0
LINE
  5
189
  8
HONTAIGAIKEI
 10
8223.3812010456932
 20
33512.521262876253
 30
0.0
 11
8223.3812010456932
 21
33436.860975339921
 31
0.0
  0
LINE
  5
18A
  8
HONTAIGAIKEI
 10
8223.3812010456932
 20
33842.521262876253
 30
0.0
 11
8223.3812010456932
 21
33632.521262876253
 31
0.0
  0
LINE
  5
18B
  8
HONTAIGAIKEI
 10
8262.4655691523985
 20
33842.521262876282
 30
0.0
 11
8262.4655691523985
 21
33632.521262876253
 31
0.0
  0
LINE
  5
18C
  8
HONTAIGAIKEI
 10
7502.4913984834011
 20
33842.521262876253
 30
0.0
 11
7502.4913984833865
 21
33632.521262876253
 31
0.0
  0
LINE
  5
18D
  8
HONTAIGAIKEI
 10
7463.4070303766957
 20
33842.521262876253
 30
0.0
 11
7463.4070303766957
 21
33632.521262876253
 31
0.0
  0
POLYLINE
  5
18E
  8
TLINE
 10
7879.8161063644347
 20
33842.521262876275
 30
0.0
 66
     1
 70
     8
  0
VERTEX
  8
TLINE
  5
2A0
 10
7879.82
 20
33842.5
 30
0.000000
  70
    32
  0
VERTEX
  8
TLINE
  5
2A1
 10
7879.88
 20
33842.0
 30
0.000000
  70
    32
  0
VERTEX
  8
TLINE
  5
2A2
 10
7879.98
 20
33841.5
 30
0.000000
  70
    32
  0
VERTEX
  8
TLINE
  5
2A3
 10
7880.10
 20
33841.0
 30
0.000000
  70
    32
  0
VERTEX
  8
TLINE
  5
2A4
 10
7880.24
 20
33840.5
 30
0.000000
  70
    32
  0
VERTEX
  8
TLINE
  5
2A5
 10
7880.42
 20
33840.0
 30
0.000000
  70
    32
  0
VERTEX
  8
TLINE
  5
2A6
 10
7880.62
 20
33839.4
 30
0.000000
  70
    32
  0
VERTEX
  8
TLINE
  5
2A7
 10
7880.85
 20
33838.9
 30
0.000000
  70
    32
  0
VERTEX
  8
TLINE
  5
2A8
 10
7881.10
 20
33838.4
 30
0.000000
  70
    32
  0
VERTEX
  8
TLINE
  5
2A9
 10
7881.38
 20
33837.9
 30
0.000000
  70
    32
  0
VERTEX
  8
TLINE
  5
2AA
 10
7881.69
 20
33837.4
 30
0.000000
  70
    32
  0
VERTEX
  8
TLINE
  5
2AB
 10
7882.02
 20
33836.9
 30
0.000000
  70
    32
  0
VERTEX
  8
TLINE
  5
2AC
 10
7882.38
 20
33836.4
 30
0.000000
  70
    32
  0
VERTEX
  8
TLINE
  5
2AD
 10
7882.76
 20
33836.0
 30
0.000000
  70
    32
  0
VERTEX
  8
TLINE
  5
2AE
 10
7883.17
 20
33835.5
 30
0.000000
  70
    32
  0
VERTEX
  8
TLINE
  5
2AF
 10
7883.61
 20
33835.0
 30
0.000000
  70
    32
  0
VERTEX
  8
TLINE
  5
2B0
 10
7884.07
 20
33834.5
 30
0.000000
  70
    32
  0
VERTEX
  8
TLINE
  5
2B1
 10
7884.55
 20
33834.1
 30
0.000000
  70
    32
  0
VERTEX
  8
TLINE
  5
2B2
 10
7885.06
 20
33833.6
 30
0.000000
  70
    32
  0
VERTEX
  8
TLINE
  5
2B3
 10
7885.59
 20
33833.1
 30
0.000000
  70
    32
  0
VERTEX
  8
TLINE
  5
2B4
 10
7886.15
 20
33832.7
 30
0.000000
  70
    32
  0
VERTEX
  8
TLINE
  5
2B5
 10
7886.73
 20
33832.2
 30
0.000000
  70
    32
  0
VERTEX
  8
TLINE
  5
2B6
 10
7887.33
 20
33831.8
 30
0.000000
  70
    32
  0
VERTEX
  8
TLINE
  5
2B7
 10
7887.96
 20
33831.4
 30
0.000000
  70
    32
  0
VERTEX
  8
TLINE
  5
2B8
 10
7888.60
 20
33830.9
 30
0.000000
  70
    32
  0
VERTEX
  8
TLINE
  5
2B9
 10
7889.27
 20
33830.5
 30
0.000000
  70
    32
  0
VERTEX
  8
TLINE
  5
2BA
 10
7889.97
 20
33830.1
 30
0.000000
  70
    32
  0
VERTEX
  8
TLINE
  5
2BB
 10
7890.68
 20
33829.7
 30
0.000000
  70
    32
  0
VERTEX
  8
TLINE
  5
2BC
 10
7891.41
 20
33829.3
 30
0.000000
  70
    32
  0
VERTEX
  8
TLINE
  5
2BD
 10
7892.17
 20
33828.9
 30
0.000000
  70
    32
  0
VERTEX
  8
TLINE
  5
2BE
 10
7892.94
 20
33828.6
 30
0.000000
  70
    32
  0
VERTEX
  8
TLINE
  5
2BF
 10
7893.74
 20
33828.2
 30
0.000000
  70
    32
  0
VERTEX
  8
TLINE
  5
2C0
 10
7894.55
 20
33827.8
 30
0.000000
  70
    32
  0
VERTEX
  8
TLINE
  5
2C1
 10
7895.38
 20
33827.5
 30
0.000000
  70
    32
  0
VERTEX
  8
TLINE
  5
2C2
 10
7896.23
 20
33827.1
 30
0.000000
  70
    32
  0
VERTEX
  8
TLINE
  5
2C3
 10
7897.10
 20
33826.8
 30
0.000000
  70
    32
  0
VERTEX
  8
TLINE
  5
2C4
 10
7897.99
 20
33826.5
 30
0.000000
  70
    32
  0
VERTEX
  8
TLINE
  5
2C5
 10
7898.89
 20
33826.2
 30
0.000000
  70
    32
  0
VERTEX
  8
TLINE
  5
2C6
 10
7899.81
 20
33825.9
 30
0.000000
  70
    32
  0
VERTEX
  8
TLINE
  5
2C7
 10
7900.74
 20
33825.6
 30
0.000000
  70
    32
  0
VERTEX
  8
TLINE
  5
2C8
 10
7901.69
 20
33825.3
 30
0.000000
  70
    32
  0
VERTEX
  8
TLINE
  5
2C9
 10
7902.66
 20
33825.0
 30
0.000000
  70
    32
  0
VERTEX
  8
TLINE
  5
2CA
 10
7903.63
 20
33824.7
 30
0.000000
  70
    32
  0
VERTEX
  8
TLINE
  5
2CB
 10
7904.63
 20
33824.5
 30
0.000000
  70
    32
  0
VERTEX
  8
TLINE
  5
2CC
 10
7905.63
 20
33824.2
 30
0.000000
  70
    32
  0
VERTEX
  8
TLINE
  5
2CD
 10
7906.65
 20
33824.0
 30
0.000000
  70
    32
  0
VERTEX
  8
TLINE
  5
2CE
 10
7907.68
 20
33823.8
 30
0.000000
  70
    32
  0
VERTEX
  8
TLINE
  5
2CF
 10
7908.72
 20
33823.6
 30
0.000000
  70
    32
  0
VERTEX
  8
TLINE
  5
2D0
 10
7909.77
 20
33823.4
 30
0.000000
  70
    32
  0
VERTEX
  8
TLINE
  5
2D1
 10
7910.83
 20
33823.2
 30
0.000000
  70
    32
  0
VERTEX
  8
TLINE
  5
2D2
 10
7911.90
 20
33823.0
 30
0.000000
  70
    32
  0
VERTEX
  8
TLINE
  5
2D3
 10
7912.98
 20
33822.9
 30
0.000000
  70
    32
  0
VERTEX
  8
TLINE
  5
2D4
 10
7914.07
 20
33822.7
 30
0.000000
  70
    32
  0
VERTEX
  8
TLINE
  5
2D5
 10
7915.16
 20
33822.6
 30
0.000000
  70
    32
  0
VERTEX
  8
TLINE
  5
2D6
 10
7916.26
 20
33822.4
 30
0.000000
  70
    32
  0
VERTEX
  8
TLINE
  5
2D7
 10
7917.37
 20
33822.3
 30
0.000000
  70
    32
  0
VERTEX
  8
TLINE
  5
2D8
 10
7918.49
 20
33822.2
 30
0.000000
  70
    32
  0
VERTEX
  8
TLINE
  5
2D9
 10
7919.61
 20
33822.1
 30
0.000000
  70
    32
  0
VERTEX
  8
TLINE
  5
2DA
 10
7920.73
 20
33822.0
 30
0.000000
  70
    32
  0
VERTEX
  8
TLINE
  5
2DB
 10
7921.86
 20
33822.0
 30
0.000000
  70
    32
  0
VERTEX
  8
TLINE
  5
2DC
 10
7922.99
 20
33821.9
 30
0.000000
  70
    32
  0
VERTEX
  8
TLINE
  5
2DD
 10
7924.12
 20
33821.9
 30
0.000000
  70
    32
  0
VERTEX
  8
TLINE
  5
2DE
 10
7925.26
 20
33821.8
 30
0.000000
  70
    32
  0
VERTEX
  8
TLINE
  5
2DF
 10
7926.40
 20
33821.8
 30
0.000000
  70
    32
  0
VERTEX
  8
TLINE
  5
2E0
 10
7927.53
 20
33821.8
 30
0.000000
  70
    32
  0
VERTEX
  8
TLINE
  5
2E1
 10
7928.67
 20
33821.8
 30
0.000000
  70
    32
  0
VERTEX
  8
TLINE
  5
2E2
 10
7929.81
 20
33821.8
 30
0.000000
  70
    32
  0
VERTEX
  8
TLINE
  5
2E3
 10
7930.94
 20
33821.9
 30
0.000000
  70
    32
  0
VERTEX
  8
TLINE
  5
2E4
 10
7932.08
 20
33821.9
 30
0.000000
  70
    32
  0
VERTEX
  8
TLINE
  5
2E5
 10
7933.21
 20
33822.0
 30
0.000000
  70
    32
  0
VERTEX
  8
TLINE
  5
2E6
 10
7934.34
 20
33822.0
 30
0.000000
  70
    32
  0
VERTEX
  8
TLINE
  5
2E7
 10
7935.46
 20
33822.1
 30
0.000000
  70
    32
  0
VERTEX
  8
TLINE
  5
2E8
 10
7936.58
 20
33822.2
 30
0.000000
  70
    32
  0
VERTEX
  8
TLINE
  5
2E9
 10
7937.70
 20
33822.3
 30
0.000000
  70
    32
  0
VERTEX
  8
TLINE
  5
2EA
 10
7938.80
 20
33822.4
 30
0.000000
  70
    32
  0
VERTEX
  8
TLINE
  5
2EB
 10
7939.91
 20
33822.6
 30
0.000000
  70
    32
  0
VERTEX
  8
TLINE
  5
2EC
 10
7941.00
 20
33822.7
 30
0.000000
  70
    32
  0
VERTEX
  8
TLINE
  5
2ED
 10
7942.09
 20
33822.9
 30
0.000000
  70
    32
  0
VERTEX
  8
TLINE
  5
2EE
 10
7943.17
 20
33823.0
 30
0.000000
  70
    32
  0
VERTEX
  8
TLINE
  5
2EF
 10
7944.24
 20
33823.2
 30
0.000000
  70
    32
  0
VERTEX
  8
TLINE
  5
2F0
 10
7945.30
 20
33823.4
 30
0.000000
  70
    32
  0
VERTEX
  8
TLINE
  5
2F1
 10
7946.35
 20
33823.6
 30
0.000000
  70
    32
  0
VERTEX
  8
TLINE
  5
2F2
 10
7947.39
 20
33823.8
 30
0.000000
  70
    32
  0
VERTEX
  8
TLINE
  5
2F3
 10
7948.42
 20
33824.0
 30
0.000000
  70
    32
  0
VERTEX
  8
TLINE
  5
2F4
 10
7949.44
 20
33824.2
 30
0.000000
  70
    32
  0
VERTEX
  8
TLINE
  5
2F5
 10
7950.44
 20
33824.5
 30
0.000000
  70
    32
  0
VERTEX
  8
TLINE
  5
2F6
 10
7951.43
 20
33824.7
 30
0.000000
  70
    32
  0
VERTEX
  8
TLINE
  5
2F7
 10
7952.41
 20
33825.0
 30
0.000000
  70
    32
  0
VERTEX
  8
TLINE
  5
2F8
 10
7953.38
 20
33825.3
 30
0.000000
  70
    32
  0
VERTEX
  8
TLINE
  5
2F9
 10
7954.33
 20
33825.6
 30
0.000000
  70
    32
  0
VERTEX
  8
TLINE
  5
2FA
 10
7955.26
 20
33825.9
 30
0.000000
  70
    32
  0
VERTEX
  8
TLINE
  5
2FB
 10
7956.18
 20
33826.2
 30
0.000000
  70
    32
  0
VERTEX
  8
TLINE
  5
2FC
 10
7957.08
 20
33826.5
 30
0.000000
  70
    32
  0
VERTEX
  8
TLINE
  5
2FD
 10
7957.97
 20
33826.8
 30
0.000000
  70
    32
  0
VERTEX
  8
TLINE
  5
2FE
 10
7958.83
 20
33827.1
 30
0.000000
  70
    32
  0
VERTEX
  8
TLINE
  5
2FF
 10
7959.68
 20
33827.5
 30
0.000000
  70
    32
  0
VERTEX
  8
TLINE
  5
300
 10
7960.52
 20
33827.8
 30
0.000000
  70
    32
  0
VERTEX
  8
TLINE
  5
301
 10
7961.33
 20
33828.2
 30
0.000000
  70
    32
  0
VERTEX
  8
TLINE
  5
302
 10
7962.12
 20
33828.6
 30
0.000000
  70
    32
  0
VERTEX
  8
TLINE
  5
303
 10
7962.90
 20
33828.9
 30
0.000000
  70
    32
  0
VERTEX
  8
TLINE
  5
304
 10
7963.65
 20
33829.3
 30
0.000000
  70
    32
  0
VERTEX
  8
TLINE
  5
305
 10
7964.39
 20
33829.7
 30
0.000000
  70
    32
  0
VERTEX
  8
TLINE
  5
306
 10
7965.10
 20
33830.1
 30
0.000000
  70
    32
  0
VERTEX
  8
TLINE
  5
307
 10
7965.79
 20
33830.5
 30
0.000000
  70
    32
  0
VERTEX
  8
TLINE
  5
308
 10
7966.46
 20
33830.9
 30
0.000000
  70
    32
  0
VERTEX
  8
TLINE
  5
309
 10
7967.11
 20
33831.4
 30
0.000000
  70
    32
  0
VERTEX
  8
TLINE
  5
30A
 10
7967.74
 20
33831.8
 30
0.000000
  70
    32
  0
VERTEX
  8
TLINE
  5
30B
 10
7968.34
 20
33832.2
 30
0.000000
  70
    32
  0
VERTEX
  8
TLINE
  5
30C
 10
7968.92
 20
33832.7
 30
0.000000
  70
    32
  0
VERTEX
  8
TLINE
  5
30D
 10
7969.48
 20
33833.1
 30
0.000000
  70
    32
  0
VERTEX
  8
TLINE
  5
30E
 10
7970.01
 20
33833.6
 30
0.000000
  70
    32
  0
VERTEX
  8
TLINE
  5
30F
 10
7970.52
 20
33834.1
 30
0.000000
  70
    32
  0
VERTEX
  8
TLINE
  5
310
 10
7971.00
 20
33834.5
 30
0.000000
  70
    32
  0
VERTEX
  8
TLINE
  5
311
 10
7971.46
 20
33835.0
 30
0.000000
  70
    32
  0
VERTEX
  8
TLINE
  5
312
 10
7971.90
 20
33835.5
 30
0.000000
  70
    32
  0
VERTEX
  8
TLINE
  5
313
 10
7972.31
 20
33836.0
 30
0.000000
  70
    32
  0
VERTEX
  8
TLINE
  5
314
 10
7972.69
 20
33836.4
 30
0.000000
  70
    32
  0
VERTEX
  8
TLINE
  5
315
 10
7973.05
 20
33836.9
 30
0.000000
  70
    32
  0
VERTEX
  8
TLINE
  5
316
 10
7973.38
 20
33837.4
 30
0.000000
  70
    32
  0
VERTEX
  8
TLINE
  5
317
 10
7973.69
 20
33837.9
 30
0.000000
  70
    32
  0
VERTEX
  8
TLINE
  5
318
 10
7973.97
 20
33838.4
 30
0.000000
  70
    32
  0
VERTEX
  8
TLINE
  5
319
 10
7974.22
 20
33838.9
 30
0.000000
  70
    32
  0
VERTEX
  8
TLINE
  5
31A
 10
7974.45
 20
33839.4
 30
0.000000
  70
    32
  0
VERTEX
  8
TLINE
  5
31B
 10
7974.65
 20
33840.0
 30
0.000000
  70
    32
  0
VERTEX
  8
TLINE
  5
31C
 10
7974.82
 20
33840.5
 30
0.000000
  70
    32
  0
VERTEX
  8
TLINE
  5
31D
 10
7974.97
 20
33841.0
 30
0.000000
  70
    32
  0
VERTEX
  8
TLINE
  5
31E
 10
7975.09
 20
33841.5
 30
0.000000
  70
    32
  0
VERTEX
  8
TLINE
  5
31F
 10
7975.19
 20
33842.0
 30
0.000000
  70
    32
  0
VERTEX
  8
TLINE
  5
320
 10
7975.25
 20
33842.5
 30
0.000000
  70
    32
  0
SEQEND
  8
TLINE
  5
321
  0
LINE
  5
18F
  8
HONTAIGAIKEI
 10
7712.1900888396658
 20
33842.521262876253
 30
0.0
 11
7712.1900888396658
 21
33890.507733633924
 31
0.0
  0
LINE
  5
190
  8
HONTAIGAIKEI
 10
7641.6216014539714
 20
33842.521262876253
 30
0.0
 11
7641.6216014539714
 21
33889.690137084493
 31
0.0
  0
LINE
  5
191
  8
HONTAIGAIKEI
 10
7712.1900888396658
 20
33842.521262876253
 30
0.0
 11
8546.9063567025769
 21
33842.521262876253
 31
0.0
  0
POLYLINE
  5
192
  8
HONTAIGAIKEI
 10
7641.621601453975
 20
33842.521262876253
 30
0.0
 66
     1
 70
     8
  0
VERTEX
  8
HONTAIGAIKEI
  5
322
 10
7641.62
 20
33842.5
 30
0.000000
  70
    32
  0
VERTEX
  8
HONTAIGAIKEI
  5
323
 10
7641.63
 20
33842.1
 30
0.000000
  70
    32
  0
VERTEX
  8
HONTAIGAIKEI
  5
324
 10
7641.66
 20
33841.6
 30
0.000000
  70
    32
  0
VERTEX
  8
HONTAIGAIKEI
  5
325
 10
7641.71
 20
33841.1
 30
0.000000
  70
    32
  0
VERTEX
  8
HONTAIGAIKEI
  5
326
 10
7641.78
 20
33840.7
 30
0.000000
  70
    32
  0
VERTEX
  8
HONTAIGAIKEI
  5
327
 10
7641.87
 20
33840.2
 30
0.000000
  70
    32
  0
VERTEX
  8
HONTAIGAIKEI
  5
328
 10
7641.99
 20
33839.7
 30
0.000000
  70
    32
  0
VERTEX
  8
HONTAIGAIKEI
  5
329
 10
7642.12
 20
33839.3
 30
0.000000
  70
    32
  0
VERTEX
  8
HONTAIGAIKEI
  5
32A
 10
7642.28
 20
33838.8
 30
0.000000
  70
    32
  0
VERTEX
  8
HONTAIGAIKEI
  5
32B
 10
7642.45
 20
33838.3
 30
0.000000
  70
    32
  0
VERTEX
  8
HONTAIGAIKEI
  5
32C
 10
7642.65
 20
33837.9
 30
0.000000
  70
    32
  0
VERTEX
  8
HONTAIGAIKEI
  5
32D
 10
7642.87
 20
33837.4
 30
0.000000
  70
    32
  0
VERTEX
  8
HONTAIGAIKEI
  5
32E
 10
7643.11
 20
33837.0
 30
0.000000
  70
    32
  0
VERTEX
  8
HONTAIGAIKEI
  5
32F
 10
7643.37
 20
33836.5
 30
0.000000
  70
    32
  0
VERTEX
  8
HONTAIGAIKEI
  5
330
 10
7643.65
 20
33836.1
 30
0.000000
  70
    32
  0
VERTEX
  8
HONTAIGAIKEI
  5
331
 10
7643.95
 20
33835.7
 30
0.000000
  70
    32
  0
VERTEX
  8
HONTAIGAIKEI
  5
332
 10
7644.27
 20
33835.2
 30
0.000000
  70
    32
  0
VERTEX
  8
HONTAIGAIKEI
  5
333
 10
7644.61
 20
33834.8
 30
0.000000
  70
    32
  0
VERTEX
  8
HONTAIGAIKEI
  5
334
 10
7644.97
 20
33834.4
 30
0.000000
  70
    32
  0
VERTEX
  8
HONTAIGAIKEI
  5
335
 10
7645.35
 20
33834.0
 30
0.000000
  70
    32
  0
VERTEX
  8
HONTAIGAIKEI
  5
336
 10
7645.74
 20
33833.5
 30
0.000000
  70
    32
  0
VERTEX
  8
HONTAIGAIKEI
  5
337
 10
7646.16
 20
33833.1
 30
0.000000
  70
    32
  0
VERTEX
  8
HONTAIGAIKEI
  5
338
 10
7646.60
 20
33832.7
 30
0.000000
  70
    32
  0
VERTEX
  8
HONTAIGAIKEI
  5
339
 10
7647.05
 20
33832.3
 30
0.000000
  70
    32
  0
VERTEX
  8
HONTAIGAIKEI
  5
33A
 10
7647.52
 20
33831.9
 30
0.000000
  70
    32
  0
VERTEX
  8
HONTAIGAIKEI
  5
33B
 10
7648.01
 20
33831.5
 30
0.000000
  70
    32
  0
VERTEX
  8
HONTAIGAIKEI
  5
33C
 10
7648.52
 20
33831.2
 30
0.000000
  70
    32
  0
VERTEX
  8
HONTAIGAIKEI
  5
33D
 10
7649.04
 20
33830.8
 30
0.000000
  70
    32
  0
VERTEX
  8
HONTAIGAIKEI
  5
33E
 10
7649.58
 20
33830.4
 30
0.000000
  70
    32
  0
VERTEX
  8
HONTAIGAIKEI
  5
33F
 10
7650.14
 20
33830.1
 30
0.000000
  70
    32
  0
VERTEX
  8
HONTAIGAIKEI
  5
340
 10
7650.71
 20
33829.7
 30
0.000000
  70
    32
  0
VERTEX
  8
HONTAIGAIKEI
  5
341
 10
7651.30
 20
33829.4
 30
0.000000
  70
    32
  0
VERTEX
  8
HONTAIGAIKEI
  5
342
 10
7651.91
 20
33829.0
 30
0.000000
  70
    32
  0
VERTEX
  8
HONTAIGAIKEI
  5
343
 10
7652.53
 20
33828.7
 30
0.000000
  70
    32
  0
VERTEX
  8
HONTAIGAIKEI
  5
344
 10
7653.16
 20
33828.4
 30
0.000000
  70
    32
  0
VERTEX
  8
HONTAIGAIKEI
  5
345
 10
7653.81
 20
33828.1
 30
0.000000
  70
    32
  0
VERTEX
  8
HONTAIGAIKEI
  5
346
 10
7654.48
 20
33827.8
 30
0.000000
  70
    32
  0
VERTEX
  8
HONTAIGAIKEI
  5
347
 10
7655.15
 20
33827.5
 30
0.000000
  70
    32
  0
VERTEX
  8
HONTAIGAIKEI
  5
348
 10
7655.84
 20
33827.2
 30
0.000000
  70
    32
  0
VERTEX
  8
HONTAIGAIKEI
  5
349
 10
7656.55
 20
33826.9
 30
0.000000
  70
    32
  0
VERTEX
  8
HONTAIGAIKEI
  5
34A
 10
7657.26
 20
33826.7
 30
0.000000
  70
    32
  0
VERTEX
  8
HONTAIGAIKEI
  5
34B
 10
7657.99
 20
33826.4
 30
0.000000
  70
    32
  0
VERTEX
  8
HONTAIGAIKEI
  5
34C
 10
7658.73
 20
33826.2
 30
0.000000
  70
    32
  0
VERTEX
  8
HONTAIGAIKEI
  5
34D
 10
7659.48
 20
33825.9
 30
0.000000
  70
    32
  0
VERTEX
  8
HONTAIGAIKEI
  5
34E
 10
7660.24
 20
33825.7
 30
0.000000
  70
    32
  0
VERTEX
  8
HONTAIGAIKEI
  5
34F
 10
7661.01
 20
33825.5
 30
0.000000
  70
    32
  0
VERTEX
  8
HONTAIGAIKEI
  5
350
 10
7661.79
 20
33825.3
 30
0.000000
  70
    32
  0
VERTEX
  8
HONTAIGAIKEI
  5
351
 10
7662.57
 20
33825.1
 30
0.000000
  70
    32
  0
VERTEX
  8
HONTAIGAIKEI
  5
352
 10
7663.37
 20
33824.9
 30
0.000000
  70
    32
  0
VERTEX
  8
HONTAIGAIKEI
  5
353
 10
7664.18
 20
33824.7
 30
0.000000
  70
    32
  0
VERTEX
  8
HONTAIGAIKEI
  5
354
 10
7664.99
 20
33824.6
 30
0.000000
  70
    32
  0
VERTEX
  8
HONTAIGAIKEI
  5
355
 10
7665.81
 20
33824.4
 30
0.000000
  70
    32
  0
VERTEX
  8
HONTAIGAIKEI
  5
356
 10
7666.64
 20
33824.3
 30
0.000000
  70
    32
  0
VERTEX
  8
HONTAIGAIKEI
  5
357
 10
7667.47
 20
33824.1
 30
0.000000
  70
    32
  0
VERTEX
  8
HONTAIGAIKEI
  5
358
 10
7668.31
 20
33824.0
 30
0.000000
  70
    32
  0
VERTEX
  8
HONTAIGAIKEI
  5
359
 10
7669.16
 20
33823.9
 30
0.000000
  70
    32
  0
VERTEX
  8
HONTAIGAIKEI
  5
35A
 10
7670.01
 20
33823.8
 30
0.000000
  70
    32
  0
VERTEX
  8
HONTAIGAIKEI
  5
35B
 10
7670.86
 20
33823.7
 30
0.000000
  70
    32
  0
VERTEX
  8
HONTAIGAIKEI
  5
35C
 10
7671.72
 20
33823.7
 30
0.000000
  70
    32
  0
VERTEX
  8
HONTAIGAIKEI
  5
35D
 10
7672.58
 20
33823.6
 30
0.000000
  70
    32
  0
VERTEX
  8
HONTAIGAIKEI
  5
35E
 10
7673.44
 20
33823.5
 30
0.000000
  70
    32
  0
VERTEX
  8
HONTAIGAIKEI
  5
35F
 10
7674.30
 20
33823.5
 30
0.000000
  70
    32
  0
VERTEX
  8
HONTAIGAIKEI
  5
360
 10
7675.17
 20
33823.5
 30
0.000000
  70
    32
  0
VERTEX
  8
HONTAIGAIKEI
  5
361
 10
7676.04
 20
33823.5
 30
0.000000
  70
    32
  0
VERTEX
  8
HONTAIGAIKEI
  5
362
 10
7676.91
 20
33823.4
 30
0.000000
  70
    32
  0
VERTEX
  8
HONTAIGAIKEI
  5
363
 10
7677.77
 20
33823.5
 30
0.000000
  70
    32
  0
VERTEX
  8
HONTAIGAIKEI
  5
364
 10
7678.64
 20
33823.5
 30
0.000000
  70
    32
  0
VERTEX
  8
HONTAIGAIKEI
  5
365
 10
7679.51
 20
33823.5
 30
0.000000
  70
    32
  0
VERTEX
  8
HONTAIGAIKEI
  5
366
 10
7680.37
 20
33823.5
 30
0.000000
  70
    32
  0
VERTEX
  8
HONTAIGAIKEI
  5
367
 10
7681.24
 20
33823.6
 30
0.000000
  70
    32
  0
VERTEX
  8
HONTAIGAIKEI
  5
368
 10
7682.10
 20
33823.7
 30
0.000000
  70
    32
  0
VERTEX
  8
HONTAIGAIKEI
  5
369
 10
7682.95
 20
33823.7
 30
0.000000
  70
    32
  0
VERTEX
  8
HONTAIGAIKEI
  5
36A
 10
7683.81
 20
33823.8
 30
0.000000
  70
    32
  0
VERTEX
  8
HONTAIGAIKEI
  5
36B
 10
7684.66
 20
33823.9
 30
0.000000
  70
    32
  0
VERTEX
  8
HONTAIGAIKEI
  5
36C
 10
7685.50
 20
33824.0
 30
0.000000
  70
    32
  0
VERTEX
  8
HONTAIGAIKEI
  5
36D
 10
7686.34
 20
33824.1
 30
0.000000
  70
    32
  0
VERTEX
  8
HONTAIGAIKEI
  5
36E
 10
7687.17
 20
33824.3
 30
0.000000
  70
    32
  0
VERTEX
  8
HONTAIGAIKEI
  5
36F
 10
7688.00
 20
33824.4
 30
0.000000
  70
    32
  0
VERTEX
  8
HONTAIGAIKEI
  5
370
 10
7688.82
 20
33824.6
 30
0.000000
  70
    32
  0
VERTEX
  8
HONTAIGAIKEI
  5
371
 10
7689.63
 20
33824.7
 30
0.000000
  70
    32
  0
VERTEX
  8
HONTAIGAIKEI
  5
372
 10
7690.44
 20
33824.9
 30
0.000000
  70
    32
  0
VERTEX
  8
HONTAIGAIKEI
  5
373
 10
7691.24
 20
33825.1
 30
0.000000
  70
    32
  0
VERTEX
  8
HONTAIGAIKEI
  5
374
 10
7692.03
 20
33825.3
 30
0.000000
  70
    32
  0
VERTEX
  8
HONTAIGAIKEI
  5
375
 10
7692.81
 20
33825.5
 30
0.000000
  70
    32
  0
VERTEX
  8
HONTAIGAIKEI
  5
376
 10
7693.58
 20
33825.7
 30
0.000000
  70
    32
  0
VERTEX
  8
HONTAIGAIKEI
  5
377
 10
7694.34
 20
33825.9
 30
0.000000
  70
    32
  0
VERTEX
  8
HONTAIGAIKEI
  5
378
 10
7695.09
 20
33826.2
 30
0.000000
  70
    32
  0
VERTEX
  8
HONTAIGAIKEI
  5
379
 10
7695.82
 20
33826.4
 30
0.000000
  70
    32
  0
VERTEX
  8
HONTAIGAIKEI
  5
37A
 10
7696.55
 20
33826.7
 30
0.000000
  70
    32
  0
VERTEX
  8
HONTAIGAIKEI
  5
37B
 10
7697.27
 20
33826.9
 30
0.000000
  70
    32
  0
VERTEX
  8
HONTAIGAIKEI
  5
37C
 10
7697.97
 20
33827.2
 30
0.000000
  70
    32
  0
VERTEX
  8
HONTAIGAIKEI
  5
37D
 10
7698.66
 20
33827.5
 30
0.000000
  70
    32
  0
VERTEX
  8
HONTAIGAIKEI
  5
37E
 10
7699.34
 20
33827.8
 30
0.000000
  70
    32
  0
VERTEX
  8
HONTAIGAIKEI
  5
37F
 10
7700.00
 20
33828.1
 30
0.000000
  70
    32
  0
VERTEX
  8
HONTAIGAIKEI
  5
380
 10
7700.65
 20
33828.4
 30
0.000000
  70
    32
  0
VERTEX
  8
HONTAIGAIKEI
  5
381
 10
7701.28
 20
33828.7
 30
0.000000
  70
    32
  0
VERTEX
  8
HONTAIGAIKEI
  5
382
 10
7701.90
 20
33829.0
 30
0.000000
  70
    32
  0
VERTEX
  8
HONTAIGAIKEI
  5
383
 10
7702.51
 20
33829.4
 30
0.000000
  70
    32
  0
VERTEX
  8
HONTAIGAIKEI
  5
384
 10
7703.10
 20
33829.7
 30
0.000000
  70
    32
  0
VERTEX
  8
HONTAIGAIKEI
  5
385
 10
7703.67
 20
33830.1
 30
0.000000
  70
    32
  0
VERTEX
  8
HONTAIGAIKEI
  5
386
 10
7704.23
 20
33830.4
 30
0.000000
  70
    32
  0
VERTEX
  8
HONTAIGAIKEI
  5
387
 10
7704.77
 20
33830.8
 30
0.000000
  70
    32
  0
VERTEX
  8
HONTAIGAIKEI
  5
388
 10
7705.29
 20
33831.2
 30
0.000000
  70
    32
  0
VERTEX
  8
HONTAIGAIKEI
  5
389
 10
7705.80
 20
33831.5
 30
0.000000
  70
    32
  0
VERTEX
  8
HONTAIGAIKEI
  5
38A
 10
7706.29
 20
33831.9
 30
0.000000
  70
    32
  0
VERTEX
  8
HONTAIGAIKEI
  5
38B
 10
7706.76
 20
33832.3
 30
0.000000
  70
    32
  0
VERTEX
  8
HONTAIGAIKEI
  5
38C
 10
7707.22
 20
33832.7
 30
0.000000
  70
    32
  0
VERTEX
  8
HONTAIGAIKEI
  5
38D
 10
7707.65
 20
33833.1
 30
0.000000
  70
    32
  0
VERTEX
  8
HONTAIGAIKEI
  5
38E
 10
7708.07
 20
33833.5
 30
0.000000
  70
    32
  0
VERTEX
  8
HONTAIGAIKEI
  5
38F
 10
7708.47
 20
33834.0
 30
0.000000
  70
    32
  0
VERTEX
  8
HONTAIGAIKEI
  5
390
 10
7708.84
 20
33834.4
 30
0.000000
  70
    32
  0
VERTEX
  8
HONTAIGAIKEI
  5
391
 10
7709.20
 20
33834.8
 30
0.000000
  70
    32
  0
VERTEX
  8
HONTAIGAIKEI
  5
392
 10
7709.54
 20
33835.2
 30
0.000000
  70
    32
  0
VERTEX
  8
HONTAIGAIKEI
  5
393
 10
7709.86
 20
33835.7
 30
0.000000
  70
    32
  0
VERTEX
  8
HONTAIGAIKEI
  5
394
 10
7710.16
 20
33836.1
 30
0.000000
  70
    32
  0
VERTEX
  8
HONTAIGAIKEI
  5
395
 10
7710.44
 20
33836.5
 30
0.000000
  70
    32
  0
VERTEX
  8
HONTAIGAIKEI
  5
396
 10
7710.70
 20
33837.0
 30
0.000000
  70
    32
  0
VERTEX
  8
HONTAIGAIKEI
  5
397
 10
7710.94
 20
33837.4
 30
0.000000
  70
    32
  0
VERTEX
  8
HONTAIGAIKEI
  5
398
 10
7711.16
 20
33837.9
 30
0.000000
  70
    32
  0
VERTEX
  8
HONTAIGAIKEI
  5
399
 10
7711.36
 20
33838.3
 30
0.000000
  70
    32
  0
VERTEX
  8
HONTAIGAIKEI
  5
39A
 10
7711.54
 20
33838.8
 30
0.000000
  70
    32
  0
VERTEX
  8
HONTAIGAIKEI
  5
39B
 10
7711.69
 20
33839.3
 30
0.000000
  70
    32
  0
VERTEX
  8
HONTAIGAIKEI
  5
39C
 10
7711.83
 20
33839.7
 30
0.000000
  70
    32
  0
VERTEX
  8
HONTAIGAIKEI
  5
39D
 10
7711.94
 20
33840.2
 30
0.000000
  70
    32
  0
VERTEX
  8
HONTAIGAIKEI
  5
39E
 10
7712.03
 20
33840.7
 30
0.000000
  70
    32
  0
VERTEX
  8
HONTAIGAIKEI
  5
39F
 10
7712.10
 20
33841.1
 30
0.000000
  70
    32
  0
VERTEX
  8
HONTAIGAIKEI
  5
3A0
 10
7712.15
 20
33841.6
 30
0.000000
  70
    32
  0
VERTEX
  8
HONTAIGAIKEI
  5
3A1
 10
7712.18
 20
33842.1
 30
0.000000
  70
    32
  0
VERTEX
  8
HONTAIGAIKEI
  5
3A2
 10
7712.19
 20
33842.5
 30
0.000000
  70
    32
  0
SEQEND
  8
HONTAIGAIKEI
  5
3A3
  0
LINE
  5
193
  8
TLINE
 10
7734.4866783161297
 20
33926.298592350679
 30
0.0
 11
7734.4866783161297
 21
33914.366381161533
 31
0.0
  0
LINE
  5
194
  8
TLINE
 10
7617.233530286835
 20
33926.298592350679
 30
0.0
 11
7617.233530286835
 21
33914.366381161533
 31
0.0
  0
POLYLINE
  5
195
  8
TLINE
 10
7617.2335302868196
 20
33914.366381161533
 30
0.0
 66
     1
 70
     8
  0
VERTEX
  8
TLINE
  5
3A4
 10
7617.23
 20
33914.4
 30
0.000000
  70
    32
  0
VERTEX
  8
TLINE
  5
3A5
 10
7617.25
 20
33913.6
 30
0.000000
  70
    32
  0
VERTEX
  8
TLINE
  5
3A6
 10
7617.30
 20
33912.9
 30
0.000000
  70
    32
  0
VERTEX
  8
TLINE
  5
3A7
 10
7617.39
 20
33912.1
 30
0.000000
  70
    32
  0
VERTEX
  8
TLINE
  5
3A8
 10
7617.52
 20
33911.4
 30
0.000000
  70
    32
  0
VERTEX
  8
TLINE
  5
3A9
 10
7617.67
 20
33910.6
 30
0.000000
  70
    32
  0
VERTEX
  8
TLINE
  5
3AA
 10
7617.87
 20
33909.9
 30
0.000000
  70
    32
  0
VERTEX
  8
TLINE
  5
3AB
 10
7618.10
 20
33909.2
 30
0.000000
  70
    32
  0
VERTEX
  8
TLINE
  5
3AC
 10
7618.36
 20
33908.4
 30
0.000000
  70
    32
  0
VERTEX
  8
TLINE
  5
3AD
 10
7618.66
 20
33907.7
 30
0.000000
  70
    32
  0
VERTEX
  8
TLINE
  5
3AE
 10
7618.99
 20
33907.0
 30
0.000000
  70
    32
  0
VERTEX
  8
TLINE
  5
3AF
 10
7619.36
 20
33906.3
 30
0.000000
  70
    32
  0
VERTEX
  8
TLINE
  5
3B0
 10
7619.76
 20
33905.5
 30
0.000000
  70
    32
  0
VERTEX
  8
TLINE
  5
3B1
 10
7620.19
 20
33904.8
 30
0.000000
  70
    32
  0
VERTEX
  8
TLINE
  5
3B2
 10
7620.66
 20
33904.1
 30
0.000000
  70
    32
  0
VERTEX
  8
TLINE
  5
3B3
 10
7621.16
 20
33903.4
 30
0.000000
  70
    32
  0
VERTEX
  8
TLINE
  5
3B4
 10
7621.70
 20
33902.7
 30
0.000000
  70
    32
  0
VERTEX
  8
TLINE
  5
3B5
 10
7622.26
 20
33902.0
 30
0.000000
  70
    32
  0
VERTEX
  8
TLINE
  5
3B6
 10
7622.86
 20
33901.4
 30
0.000000
  70
    32
  0
VERTEX
  8
TLINE
  5
3B7
 10
7623.49
 20
33900.7
 30
0.000000
  70
    32
  0
VERTEX
  8
TLINE
  5
3B8
 10
7624.16
 20
33900.0
 30
0.000000
  70
    32
  0
VERTEX
  8
TLINE
  5
3B9
 10
7624.85
 20
33899.4
 30
0.000000
  70
    32
  0
VERTEX
  8
TLINE
  5
3BA
 10
7625.57
 20
33898.7
 30
0.000000
  70
    32
  0
VERTEX
  8
TLINE
  5
3BB
 10
7626.33
 20
33898.1
 30
0.000000
  70
    32
  0
VERTEX
  8
TLINE
  5
3BC
 10
7627.11
 20
33897.5
 30
0.000000
  70
    32
  0
VERTEX
  8
TLINE
  5
3BD
 10
7627.93
 20
33896.9
 30
0.000000
  70
    32
  0
VERTEX
  8
TLINE
  5
3BE
 10
7628.77
 20
33896.3
 30
0.000000
  70
    32
  0
VERTEX
  8
TLINE
  5
3BF
 10
7629.64
 20
33895.7
 30
0.000000
  70
    32
  0
VERTEX
  8
TLINE
  5
3C0
 10
7630.54
 20
33895.1
 30
0.000000
  70
    32
  0
VERTEX
  8
TLINE
  5
3C1
 10
7631.47
 20
33894.5
 30
0.000000
  70
    32
  0
VERTEX
  8
TLINE
  5
3C2
 10
7632.42
 20
33894.0
 30
0.000000
  70
    32
  0
VERTEX
  8
TLINE
  5
3C3
 10
7633.40
 20
33893.4
 30
0.000000
  70
    32
  0
VERTEX
  8
TLINE
  5
3C4
 10
7634.40
 20
33892.9
 30
0.000000
  70
    32
  0
VERTEX
  8
TLINE
  5
3C5
 10
7635.43
 20
33892.4
 30
0.000000
  70
    32
  0
VERTEX
  8
TLINE
  5
3C6
 10
7636.49
 20
33891.8
 30
0.000000
  70
    32
  0
VERTEX
  8
TLINE
  5
3C7
 10
7637.57
 20
33891.3
 30
0.000000
  70
    32
  0
VERTEX
  8
TLINE
  5
3C8
 10
7638.67
 20
33890.9
 30
0.000000
  70
    32
  0
VERTEX
  8
TLINE
  5
3C9
 10
7639.79
 20
33890.4
 30
0.000000
  70
    32
  0
VERTEX
  8
TLINE
  5
3CA
 10
7640.94
 20
33889.9
 30
0.000000
  70
    32
  0
VERTEX
  8
TLINE
  5
3CB
 10
7642.10
 20
33889.5
 30
0.000000
  70
    32
  0
VERTEX
  8
TLINE
  5
3CC
 10
7643.29
 20
33889.1
 30
0.000000
  70
    32
  0
VERTEX
  8
TLINE
  5
3CD
 10
7644.50
 20
33888.7
 30
0.000000
  70
    32
  0
VERTEX
  8
TLINE
  5
3CE
 10
7645.72
 20
33888.3
 30
0.000000
  70
    32
  0
VERTEX
  8
TLINE
  5
3CF
 10
7646.96
 20
33887.9
 30
0.000000
  70
    32
  0
VERTEX
  8
TLINE
  5
3D0
 10
7648.22
 20
33887.6
 30
0.000000
  70
    32
  0
VERTEX
  8
TLINE
  5
3D1
 10
7649.50
 20
33887.2
 30
0.000000
  70
    32
  0
VERTEX
  8
TLINE
  5
3D2
 10
7650.79
 20
33886.9
 30
0.000000
  70
    32
  0
VERTEX
  8
TLINE
  5
3D3
 10
7652.10
 20
33886.6
 30
0.000000
  70
    32
  0
VERTEX
  8
TLINE
  5
3D4
 10
7653.42
 20
33886.3
 30
0.000000
  70
    32
  0
VERTEX
  8
TLINE
  5
3D5
 10
7654.76
 20
33886.0
 30
0.000000
  70
    32
  0
VERTEX
  8
TLINE
  5
3D6
 10
7656.11
 20
33885.7
 30
0.000000
  70
    32
  0
VERTEX
  8
TLINE
  5
3D7
 10
7657.47
 20
33885.5
 30
0.000000
  70
    32
  0
VERTEX
  8
TLINE
  5
3D8
 10
7658.84
 20
33885.3
 30
0.000000
  70
    32
  0
VERTEX
  8
TLINE
  5
3D9
 10
7660.22
 20
33885.1
 30
0.000000
  70
    32
  0
VERTEX
  8
TLINE
  5
3DA
 10
7661.62
 20
33884.9
 30
0.000000
  70
    32
  0
VERTEX
  8
TLINE
  5
3DB
 10
7663.01
 20
33884.7
 30
0.000000
  70
    32
  0
VERTEX
  8
TLINE
  5
3DC
 10
7664.42
 20
33884.6
 30
0.000000
  70
    32
  0
VERTEX
  8
TLINE
  5
3DD
 10
7665.84
 20
33884.4
 30
0.000000
  70
    32
  0
VERTEX
  8
TLINE
  5
3DE
 10
7667.26
 20
33884.3
 30
0.000000
  70
    32
  0
VERTEX
  8
TLINE
  5
3DF
 10
7668.68
 20
33884.2
 30
0.000000
  70
    32
  0
VERTEX
  8
TLINE
  5
3E0
 10
7670.11
 20
33884.1
 30
0.000000
  70
    32
  0
VERTEX
  8
TLINE
  5
3E1
 10
7671.55
 20
33884.0
 30
0.000000
  70
    32
  0
VERTEX
  8
TLINE
  5
3E2
 10
7672.98
 20
33884.0
 30
0.000000
  70
    32
  0
VERTEX
  8
TLINE
  5
3E3
 10
7674.42
 20
33884.0
 30
0.000000
  70
    32
  0
VERTEX
  8
TLINE
  5
3E4
 10
7675.86
 20
33884.0
 30
0.000000
  70
    32
  0
VERTEX
  8
TLINE
  5
3E5
 10
7677.30
 20
33884.0
 30
0.000000
  70
    32
  0
VERTEX
  8
TLINE
  5
3E6
 10
7678.74
 20
33884.0
 30
0.000000
  70
    32
  0
VERTEX
  8
TLINE
  5
3E7
 10
7680.17
 20
33884.0
 30
0.000000
  70
    32
  0
VERTEX
  8
TLINE
  5
3E8
 10
7681.61
 20
33884.1
 30
0.000000
  70
    32
  0
VERTEX
  8
TLINE
  5
3E9
 10
7683.04
 20
33884.2
 30
0.000000
  70
    32
  0
VERTEX
  8
TLINE
  5
3EA
 10
7684.46
 20
33884.3
 30
0.000000
  70
    32
  0
VERTEX
  8
TLINE
  5
3EB
 10
7685.88
 20
33884.4
 30
0.000000
  70
    32
  0
VERTEX
  8
TLINE
  5
3EC
 10
7687.30
 20
33884.6
 30
0.000000
  70
    32
  0
VERTEX
  8
TLINE
  5
3ED
 10
7688.71
 20
33884.7
 30
0.000000
  70
    32
  0
VERTEX
  8
TLINE
  5
3EE
 10
7690.11
 20
33884.9
 30
0.000000
  70
    32
  0
VERTEX
  8
TLINE
  5
3EF
 10
7691.50
 20
33885.1
 30
0.000000
  70
    32
  0
VERTEX
  8
TLINE
  5
3F0
 10
7692.88
 20
33885.3
 30
0.000000
  70
    32
  0
VERTEX
  8
TLINE
  5
3F1
 10
7694.25
 20
33885.5
 30
0.000000
  70
    32
  0
VERTEX
  8
TLINE
  5
3F2
 10
7695.61
 20
33885.7
 30
0.000000
  70
    32
  0
VERTEX
  8
TLINE
  5
3F3
 10
7696.96
 20
33886.0
 30
0.000000
  70
    32
  0
VERTEX
  8
TLINE
  5
3F4
 10
7698.30
 20
33886.3
 30
0.000000
  70
    32
  0
VERTEX
  8
TLINE
  5
3F5
 10
7699.62
 20
33886.6
 30
0.000000
  70
    32
  0
VERTEX
  8
TLINE
  5
3F6
 10
7700.93
 20
33886.9
 30
0.000000
  70
    32
  0
VERTEX
  8
TLINE
  5
3F7
 10
7702.22
 20
33887.2
 30
0.000000
  70
    32
  0
VERTEX
  8
TLINE
  5
3F8
 10
7703.50
 20
33887.6
 30
0.000000
  70
    32
  0
VERTEX
  8
TLINE
  5
3F9
 10
7704.76
 20
33887.9
 30
0.000000
  70
    32
  0
VERTEX
  8
TLINE
  5
3FA
 10
7706.00
 20
33888.3
 30
0.000000
  70
    32
  0
VERTEX
  8
TLINE
  5
3FB
 10
7707.23
 20
33888.7
 30
0.000000
  70
    32
  0
VERTEX
  8
TLINE
  5
3FC
 10
7708.43
 20
33889.1
 30
0.000000
  70
    32
  0
VERTEX
  8
TLINE
  5
3FD
 10
7709.62
 20
33889.5
 30
0.000000
  70
    32
  0
VERTEX
  8
TLINE
  5
3FE
 10
7710.78
 20
33889.9
 30
0.000000
  70
    32
  0
VERTEX
  8
TLINE
  5
3FF
 10
7711.93
 20
33890.4
 30
0.000000
  70
    32
  0
VERTEX
  8
TLINE
  5
400
 10
7713.05
 20
33890.9
 30
0.000000
  70
    32
  0
VERTEX
  8
TLINE
  5
401
 10
7714.15
 20
33891.3
 30
0.000000
  70
    32
  0
VERTEX
  8
TLINE
  5
402
 10
7715.23
 20
33891.8
 30
0.000000
  70
    32
  0
VERTEX
  8
TLINE
  5
403
 10
7716.29
 20
33892.4
 30
0.000000
  70
    32
  0
VERTEX
  8
TLINE
  5
404
 10
7717.32
 20
33892.9
 30
0.000000
  70
    32
  0
VERTEX
  8
TLINE
  5
405
 10
7718.32
 20
33893.4
 30
0.000000
  70
    32
  0
VERTEX
  8
TLINE
  5
406
 10
7719.30
 20
33894.0
 30
0.000000
  70
    32
  0
VERTEX
  8
TLINE
  5
407
 10
7720.25
 20
33894.5
 30
0.000000
  70
    32
  0
VERTEX
  8
TLINE
  5
408
 10
7721.18
 20
33895.1
 30
0.000000
  70
    32
  0
VERTEX
  8
TLINE
  5
409
 10
7722.08
 20
33895.7
 30
0.000000
  70
    32
  0
VERTEX
  8
TLINE
  5
40A
 10
7722.95
 20
33896.3
 30
0.000000
  70
    32
  0
VERTEX
  8
TLINE
  5
40B
 10
7723.79
 20
33896.9
 30
0.000000
  70
    32
  0
VERTEX
  8
TLINE
  5
40C
 10
7724.61
 20
33897.5
 30
0.000000
  70
    32
  0
VERTEX
  8
TLINE
  5
40D
 10
7725.39
 20
33898.1
 30
0.000000
  70
    32
  0
VERTEX
  8
TLINE
  5
40E
 10
7726.15
 20
33898.7
 30
0.000000
  70
    32
  0
VERTEX
  8
TLINE
  5
40F
 10
7726.87
 20
33899.4
 30
0.000000
  70
    32
  0
VERTEX
  8
TLINE
  5
410
 10
7727.56
 20
33900.0
 30
0.000000
  70
    32
  0
VERTEX
  8
TLINE
  5
411
 10
7728.23
 20
33900.7
 30
0.000000
  70
    32
  0
VERTEX
  8
TLINE
  5
412
 10
7728.86
 20
33901.4
 30
0.000000
  70
    32
  0
VERTEX
  8
TLINE
  5
413
 10
7729.46
 20
33902.0
 30
0.000000
  70
    32
  0
VERTEX
  8
TLINE
  5
414
 10
7730.02
 20
33902.7
 30
0.000000
  70
    32
  0
VERTEX
  8
TLINE
  5
415
 10
7730.56
 20
33903.4
 30
0.000000
  70
    32
  0
VERTEX
  8
TLINE
  5
416
 10
7731.06
 20
33904.1
 30
0.000000
  70
    32
  0
VERTEX
  8
TLINE
  5
417
 10
7731.53
 20
33904.8
 30
0.000000
  70
    32
  0
VERTEX
  8
TLINE
  5
418
 10
7731.96
 20
33905.5
 30
0.000000
  70
    32
  0
VERTEX
  8
TLINE
  5
419
 10
7732.36
 20
33906.3
 30
0.000000
  70
    32
  0
VERTEX
  8
TLINE
  5
41A
 10
7732.73
 20
33907.0
 30
0.000000
  70
    32
  0
VERTEX
  8
TLINE
  5
41B
 10
7733.06
 20
33907.7
 30
0.000000
  70
    32
  0
VERTEX
  8
TLINE
  5
41C
 10
7733.36
 20
33908.4
 30
0.000000
  70
    32
  0
VERTEX
  8
TLINE
  5
41D
 10
7733.62
 20
33909.2
 30
0.000000
  70
    32
  0
VERTEX
  8
TLINE
  5
41E
 10
7733.85
 20
33909.9
 30
0.000000
  70
    32
  0
VERTEX
  8
TLINE
  5
41F
 10
7734.05
 20
33910.6
 30
0.000000
  70
    32
  0
VERTEX
  8
TLINE
  5
420
 10
7734.20
 20
33911.4
 30
0.000000
  70
    32
  0
VERTEX
  8
TLINE
  5
421
 10
7734.33
 20
33912.1
 30
0.000000
  70
    32
  0
VERTEX
  8
TLINE
  5
422
 10
7734.42
 20
33912.9
 30
0.000000
  70
    32
  0
VERTEX
  8
TLINE
  5
423
 10
7734.47
 20
33913.6
 30
0.000000
  70
    32
  0
VERTEX
  8
TLINE
  5
424
 10
7734.49
 20
33914.4
 30
0.000000
  70
    32
  0
SEQEND
  8
TLINE
  5
425
  0
POLYLINE
  5
196
  8
TLINE
 10
7734.486678316116
 20
33926.298592350679
 30
0.0
 66
     1
 70
     8
  0
VERTEX
  8
TLINE
  5
426
 10
7734.49
 20
33926.3
 30
0.000000
  70
    32
  0
VERTEX
  8
TLINE
  5
427
 10
7734.42
 20
33927.8
 30
0.000000
  70
    32
  0
VERTEX
  8
TLINE
  5
428
 10
7734.20
 20
33929.3
 30
0.000000
  70
    32
  0
VERTEX
  8
TLINE
  5
429
 10
7733.85
 20
33930.8
 30
0.000000
  70
    32
  0
VERTEX
  8
TLINE
  5
42A
 10
7733.36
 20
33932.2
 30
0.000000
  70
    32
  0
VERTEX
  8
TLINE
  5
42B
 10
7732.73
 20
33933.7
 30
0.000000
  70
    32
  0
VERTEX
  8
TLINE
  5
42C
 10
7731.96
 20
33935.1
 30
0.000000
  70
    32
  0
VERTEX
  8
TLINE
  5
42D
 10
7731.06
 20
33936.5
 30
0.000000
  70
    32
  0
VERTEX
  8
TLINE
  5
42E
 10
7730.02
 20
33937.9
 30
0.000000
  70
    32
  0
VERTEX
  8
TLINE
  5
42F
 10
7728.86
 20
33939.3
 30
0.000000
  70
    32
  0
VERTEX
  8
TLINE
  5
430
 10
7727.56
 20
33940.6
 30
0.000000
  70
    32
  0
VERTEX
  8
TLINE
  5
431
 10
7726.15
 20
33941.9
 30
0.000000
  70
    32
  0
VERTEX
  8
TLINE
  5
432
 10
7724.61
 20
33943.2
 30
0.000000
  70
    32
  0
VERTEX
  8
TLINE
  5
433
 10
7722.95
 20
33944.4
 30
0.000000
  70
    32
  0
VERTEX
  8
TLINE
  5
434
 10
7721.18
 20
33945.6
 30
0.000000
  70
    32
  0
VERTEX
  8
TLINE
  5
435
 10
7719.30
 20
33946.7
 30
0.000000
  70
    32
  0
VERTEX
  8
TLINE
  5
436
 10
7717.32
 20
33947.8
 30
0.000000
  70
    32
  0
VERTEX
  8
TLINE
  5
437
 10
7715.23
 20
33948.8
 30
0.000000
  70
    32
  0
VERTEX
  8
TLINE
  5
438
 10
7713.05
 20
33949.8
 30
0.000000
  70
    32
  0
VERTEX
  8
TLINE
  5
439
 10
7710.78
 20
33950.7
 30
0.000000
  70
    32
  0
VERTEX
  8
TLINE
  5
43A
 10
7708.43
 20
33951.6
 30
0.000000
  70
    32
  0
VERTEX
  8
TLINE
  5
43B
 10
7706.00
 20
33952.4
 30
0.000000
  70
    32
  0
VERTEX
  8
TLINE
  5
43C
 10
7703.50
 20
33953.1
 30
0.000000
  70
    32
  0
VERTEX
  8
TLINE
  5
43D
 10
7700.93
 20
33953.8
 30
0.000000
  70
    32
  0
VERTEX
  8
TLINE
  5
43E
 10
7698.30
 20
33954.4
 30
0.000000
  70
    32
  0
VERTEX
  8
TLINE
  5
43F
 10
7695.61
 20
33954.9
 30
0.000000
  70
    32
  0
VERTEX
  8
TLINE
  5
440
 10
7692.88
 20
33955.4
 30
0.000000
  70
    32
  0
VERTEX
  8
TLINE
  5
441
 10
7690.11
 20
33955.8
 30
0.000000
  70
    32
  0
VERTEX
  8
TLINE
  5
442
 10
7687.30
 20
33956.1
 30
0.000000
  70
    32
  0
VERTEX
  8
TLINE
  5
443
 10
7684.46
 20
33956.4
 30
0.000000
  70
    32
  0
VERTEX
  8
TLINE
  5
444
 10
7681.61
 20
33956.6
 30
0.000000
  70
    32
  0
VERTEX
  8
TLINE
  5
445
 10
7678.74
 20
33956.7
 30
0.000000
  70
    32
  0
VERTEX
  8
TLINE
  5
446
 10
7675.86
 20
33956.7
 30
0.000000
  70
    32
  0
VERTEX
  8
TLINE
  5
447
 10
7672.98
 20
33956.7
 30
0.000000
  70
    32
  0
VERTEX
  8
TLINE
  5
448
 10
7670.11
 20
33956.6
 30
0.000000
  70
    32
  0
VERTEX
  8
TLINE
  5
449
 10
7667.26
 20
33956.4
 30
0.000000
  70
    32
  0
VERTEX
  8
TLINE
  5
44A
 10
7664.42
 20
33956.1
 30
0.000000
  70
    32
  0
VERTEX
  8
TLINE
  5
44B
 10
7661.62
 20
33955.8
 30
0.000000
  70
    32
  0
VERTEX
  8
TLINE
  5
44C
 10
7658.84
 20
33955.4
 30
0.000000
  70
    32
  0
VERTEX
  8
TLINE
  5
44D
 10
7656.11
 20
33954.9
 30
0.000000
  70
    32
  0
VERTEX
  8
TLINE
  5
44E
 10
7653.42
 20
33954.4
 30
0.000000
  70
    32
  0
VERTEX
  8
TLINE
  5
44F
 10
7650.79
 20
33953.8
 30
0.000000
  70
    32
  0
VERTEX
  8
TLINE
  5
450
 10
7648.22
 20
33953.1
 30
0.000000
  70
    32
  0
VERTEX
  8
TLINE
  5
451
 10
7645.72
 20
33952.4
 30
0.000000
  70
    32
  0
VERTEX
  8
TLINE
  5
452
 10
7643.29
 20
33951.6
 30
0.000000
  70
    32
  0
VERTEX
  8
TLINE
  5
453
 10
7640.94
 20
33950.7
 30
0.000000
  70
    32
  0
VERTEX
  8
TLINE
  5
454
 10
7638.67
 20
33949.8
 30
0.000000
  70
    32
  0
VERTEX
  8
TLINE
  5
455
 10
7636.49
 20
33948.8
 30
0.000000
  70
    32
  0
VERTEX
  8
TLINE
  5
456
 10
7634.40
 20
33947.8
 30
0.000000
  70
    32
  0
VERTEX
  8
TLINE
  5
457
 10
7632.42
 20
33946.7
 30
0.000000
  70
    32
  0
VERTEX
  8
TLINE
  5
458
 10
7630.54
 20
33945.6
 30
0.000000
  70
    32
  0
VERTEX
  8
TLINE
  5
459
 10
7628.77
 20
33944.4
 30
0.000000
  70
    32
  0
VERTEX
  8
TLINE
  5
45A
 10
7627.11
 20
33943.2
 30
0.000000
  70
    32
  0
VERTEX
  8
TLINE
  5
45B
 10
7625.57
 20
33941.9
 30
0.000000
  70
    32
  0
VERTEX
  8
TLINE
  5
45C
 10
7624.16
 20
33940.6
 30
0.000000
  70
    32
  0
VERTEX
  8
TLINE
  5
45D
 10
7622.86
 20
33939.3
 30
0.000000
  70
    32
  0
VERTEX
  8
TLINE
  5
45E
 10
7621.70
 20
33937.9
 30
0.000000
  70
    32
  0
VERTEX
  8
TLINE
  5
45F
 10
7620.66
 20
33936.5
 30
0.000000
  70
    32
  0
VERTEX
  8
TLINE
  5
460
 10
7619.76
 20
33935.1
 30
0.000000
  70
    32
  0
VERTEX
  8
TLINE
  5
461
 10
7618.99
 20
33933.7
 30
0.000000
  70
    32
  0
VERTEX
  8
TLINE
  5
462
 10
7618.36
 20
33932.2
 30
0.000000
  70
    32
  0
VERTEX
  8
TLINE
  5
463
 10
7617.87
 20
33930.8
 30
0.000000
  70
    32
  0
VERTEX
  8
TLINE
  5
464
 10
7617.52
 20
33929.3
 30
0.000000
  70
    32
  0
VERTEX
  8
TLINE
  5
465
 10
7617.30
 20
33927.8
 30
0.000000
  70
    32
  0
VERTEX
  8
TLINE
  5
466
 10
7617.23
 20
33926.3
 30
0.000000
  70
    32
  0
VERTEX
  8
TLINE
  5
467
 10
7617.30
 20
33924.8
 30
0.000000
  70
    32
  0
VERTEX
  8
TLINE
  5
468
 10
7617.52
 20
33923.3
 30
0.000000
  70
    32
  0
VERTEX
  8
TLINE
  5
469
 10
7617.87
 20
33921.8
 30
0.000000
  70
    32
  0
VERTEX
  8
TLINE
  5
46A
 10
7618.36
 20
33920.4
 30
0.000000
  70
    32
  0
VERTEX
  8
TLINE
  5
46B
 10
7618.99
 20
33918.9
 30
0.000000
  70
    32
  0
VERTEX
  8
TLINE
  5
46C
 10
7619.76
 20
33917.5
 30
0.000000
  70
    32
  0
VERTEX
  8
TLINE
  5
46D
 10
7620.66
 20
33916.1
 30
0.000000
  70
    32
  0
VERTEX
  8
TLINE
  5
46E
 10
7621.70
 20
33914.7
 30
0.000000
  70
    32
  0
VERTEX
  8
TLINE
  5
46F
 10
7622.86
 20
33913.3
 30
0.000000
  70
    32
  0
VERTEX
  8
TLINE
  5
470
 10
7624.16
 20
33912.0
 30
0.000000
  70
    32
  0
VERTEX
  8
TLINE
  5
471
 10
7625.57
 20
33910.7
 30
0.000000
  70
    32
  0
VERTEX
  8
TLINE
  5
472
 10
7627.11
 20
33909.4
 30
0.000000
  70
    32
  0
VERTEX
  8
TLINE
  5
473
 10
7628.77
 20
33908.2
 30
0.000000
  70
    32
  0
VERTEX
  8
TLINE
  5
474
 10
7630.54
 20
33907.0
 30
0.000000
  70
    32
  0
VERTEX
  8
TLINE
  5
475
 10
7632.42
 20
33905.9
 30
0.000000
  70
    32
  0
VERTEX
  8
TLINE
  5
476
 10
7634.40
 20
33904.8
 30
0.000000
  70
    32
  0
VERTEX
  8
TLINE
  5
477
 10
7636.49
 20
33903.8
 30
0.000000
  70
    32
  0
VERTEX
  8
TLINE
  5
478
 10
7638.67
 20
33902.8
 30
0.000000
  70
    32
  0
VERTEX
  8
TLINE
  5
479
 10
7640.94
 20
33901.9
 30
0.000000
  70
    32
  0
VERTEX
  8
TLINE
  5
47A
 10
7643.29
 20
33901.0
 30
0.000000
  70
    32
  0
VERTEX
  8
TLINE
  5
47B
 10
7645.72
 20
33900.2
 30
0.000000
  70
    32
  0
VERTEX
  8
TLINE
  5
47C
 10
7648.22
 20
33899.5
 30
0.000000
  70
    32
  0
VERTEX
  8
TLINE
  5
47D
 10
7650.79
 20
33898.8
 30
0.000000
  70
    32
  0
VERTEX
  8
TLINE
  5
47E
 10
7653.42
 20
33898.2
 30
0.000000
  70
    32
  0
VERTEX
  8
TLINE
  5
47F
 10
7656.11
 20
33897.7
 30
0.000000
  70
    32
  0
VERTEX
  8
TLINE
  5
480
 10
7658.84
 20
33897.2
 30
0.000000
  70
    32
  0
VERTEX
  8
TLINE
  5
481
 10
7661.62
 20
33896.8
 30
0.000000
  70
    32
  0
VERTEX
  8
TLINE
  5
482
 10
7664.42
 20
33896.5
 30
0.000000
  70
    32
  0
VERTEX
  8
TLINE
  5
483
 10
7667.26
 20
33896.2
 30
0.000000
  70
    32
  0
VERTEX
  8
TLINE
  5
484
 10
7670.11
 20
33896.0
 30
0.000000
  70
    32
  0
VERTEX
  8
TLINE
  5
485
 10
7672.98
 20
33895.9
 30
0.000000
  70
    32
  0
VERTEX
  8
TLINE
  5
486
 10
7675.86
 20
33895.9
 30
0.000000
  70
    32
  0
VERTEX
  8
TLINE
  5
487
 10
7678.74
 20
33895.9
 30
0.000000
  70
    32
  0
VERTEX
  8
TLINE
  5
488
 10
7681.61
 20
33896.0
 30
0.000000
  70
    32
  0
VERTEX
  8
TLINE
  5
489
 10
7684.46
 20
33896.2
 30
0.000000
  70
    32
  0
VERTEX
  8
TLINE
  5
48A
 10
7687.30
 20
33896.5
 30
0.000000
  70
    32
  0
VERTEX
  8
TLINE
  5
48B
 10
7690.11
 20
33896.8
 30
0.000000
  70
    32
  0
VERTEX
  8
TLINE
  5
48C
 10
7692.88
 20
33897.2
 30
0.000000
  70
    32
  0
VERTEX
  8
TLINE
  5
48D
 10
7695.61
 20
33897.7
 30
0.000000
  70
    32
  0
VERTEX
  8
TLINE
  5
48E
 10
7698.30
 20
33898.2
 30
0.000000
  70
    32
  0
VERTEX
  8
TLINE
  5
48F
 10
7700.93
 20
33898.8
 30
0.000000
  70
    32
  0
VERTEX
  8
TLINE
  5
490
 10
7703.50
 20
33899.5
 30
0.000000
  70
    32
  0
VERTEX
  8
TLINE
  5
491
 10
7706.00
 20
33900.2
 30
0.000000
  70
    32
  0
VERTEX
  8
TLINE
  5
492
 10
7708.43
 20
33901.0
 30
0.000000
  70
    32
  0
VERTEX
  8
TLINE
  5
493
 10
7710.78
 20
33901.9
 30
0.000000
  70
    32
  0
VERTEX
  8
TLINE
  5
494
 10
7713.05
 20
33902.8
 30
0.000000
  70
    32
  0
VERTEX
  8
TLINE
  5
495
 10
7715.23
 20
33903.8
 30
0.000000
  70
    32
  0
VERTEX
  8
TLINE
  5
496
 10
7717.32
 20
33904.8
 30
0.000000
  70
    32
  0
VERTEX
  8
TLINE
  5
497
 10
7719.30
 20
33905.9
 30
0.000000
  70
    32
  0
VERTEX
  8
TLINE
  5
498
 10
7721.18
 20
33907.0
 30
0.000000
  70
    32
  0
VERTEX
  8
TLINE
  5
499
 10
7722.95
 20
33908.2
 30
0.000000
  70
    32
  0
VERTEX
  8
TLINE
  5
49A
 10
7724.61
 20
33909.4
 30
0.000000
  70
    32
  0
VERTEX
  8
TLINE
  5
49B
 10
7726.15
 20
33910.7
 30
0.000000
  70
    32
  0
VERTEX
  8
TLINE
  5
49C
 10
7727.56
 20
33912.0
 30
0.000000
  70
    32
  0
VERTEX
  8
TLINE
  5
49D
 10
7728.86
 20
33913.3
 30
0.000000
  70
    32
  0
VERTEX
  8
TLINE
  5
49E
 10
7730.02
 20
33914.7
 30
0.000000
  70
    32
  0
VERTEX
  8
TLINE
  5
49F
 10
7731.06
 20
33916.1
 30
0.000000
  70
    32
  0
VERTEX
  8
TLINE
  5
4A0
 10
7731.96
 20
33917.5
 30
0.000000
  70
    32
  0
VERTEX
  8
TLINE
  5
4A1
 10
7732.73
 20
33918.9
 30
0.000000
  70
    32
  0
VERTEX
  8
TLINE
  5
4A2
 10
7733.36
 20
33920.4
 30
0.000000
  70
    32
  0
VERTEX
  8
TLINE
  5
4A3
 10
7733.85
 20
33921.8
 30
0.000000
  70
    32
  0
VERTEX
  8
TLINE
  5
4A4
 10
7734.20
 20
33923.3
 30
0.000000
  70
    32
  0
VERTEX
  8
TLINE
  5
4A5
 10
7734.42
 20
33924.8
 30
0.000000
  70
    32
  0
VERTEX
  8
TLINE
  5
4A6
 10
7734.49
 20
33926.3
 30
0.000000
  70
    32
  0
SEQEND
  8
TLINE
  5
4A7
  0
LINE
  5
197
  8
HONTAIGAIKEI
 10
10008.880854666389
 20
33842.521262876253
 30
0.0
 11
10074.19587302834
 21
33842.521262876253
 31
0.0
  0
LINE
  5
198
  8
HONTAIGAIKEI
 10
10760.053001007631
 20
33842.521262876253
 30
0.0
 11
10920.293441540371
 21
33842.521262876253
 31
0.0
  0
LINE
  5
199
  8
HONTAIGAIKEI
 10
8338.559596944051
 20
33632.521262876282
 30
0.0
 11
8338.559596944051
 21
33782.521262876253
 31
0.0
  0
LINE
  5
19A
  8
HONTAIGAIKEI
 10
7365.7927102761641
 20
33512.521262876253
 30
0.0
 11
7365.7927102761641
 21
33496.860975339921
 31
0.0
  0
ARC
  5
19B
  8
HONTAIGAIKEI
 10
7425.7927102761641
 20
33496.860975339921
 30
0.0
 40
60.0
 50
180.0
 51
270.0
  0
ARC
  5
19C
  8
HONTAIGAIKEI
 10
8278.559596944051
 20
33496.860975339921
 30
0.0
 40
60.0
 50
270.0
 51
0.0
  0
ARC
  5
19D
  8
HONTAIGAIKEI
 10
8278.559596944051
 20
33782.521262876253
 30
0.0
 40
60.0
 50
0.0
 51
90.0
  0
ARC
  5
19E
  8
HONTAIGAIKEI
 10
7425.7927102761778
 20
33782.521262876253
 30
0.0
 40
60.0
 50
90.0
 51
180.0
  0
LINE
  5
19F
  8
HONTAIGAIKEI
 10
8338.559596944051
 20
33496.860975339921
 30
0.0
 11
8338.559596944051
 21
33512.521262876253
 31
0.0
  0
LINE
  5
1A0
  8
HONTAIGAIKEI
 10
7425.7927102761641
 20
33436.860975339921
 30
0.0
 11
8278.559596944051
 21
33436.860975339921
 31
0.0
  0
LINE
  5
1A1
  8
HONTAIGAIKEI
 10
7365.7927102761787
 20
33782.521262876253
 30
0.0
 11
7365.7927102761641
 21
33632.521262876253
 31
0.0
  0
ARC
  5
1A2
  8
HONTAIGAIKEI
 10
7205.3413625284047
 20
33741.911993249501
 30
0.0
 40
10.0
 50
180.0
 51
270.0
  0
ARC
  5
1A3
  8
HONTAIGAIKEI
 10
7226.5971058913156
 20
33741.911993249501
 30
0.0
 40
10.0
 50
270.0
 51
0.0
  0
ARC
  5
1A4
  8
HONTAIGAIKEI
 10
7226.5971058913156
 20
33951.878245258442
 30
0.0
 40
10.0
 50
0.0
 51
90.0
  0
ARC
  5
1A5
  8
HONTAIGAIKEI
 10
7205.3413625284047
 20
33951.878245258442
 30
0.0
 40
10.0
 50
90.0
 51
180.0
  0
LINE
  5
1A6
  8
HONTAIGAIKEI
 10
7226.5971058913156
 20
33961.878245258442
 30
0.0
 11
7205.3413625284047
 21
33961.878245258442
 31
0.0
  0
LINE
  5
1A7
  8
HONTAIGAIKEI
 10
7236.5971058913156
 20
33741.911993249501
 30
0.0
 11
7236.5971058913156
 21
33951.878245258442
 31
0.0
  0
LINE
  5
1A8
  8
HONTAIGAIKEI
 10
7205.3413625284047
 20
33731.911993249501
 30
0.0
 11
7226.5971058913156
 21
33731.911993249501
 31
0.0
  0
LINE
  5
1A9
  8
HONTAIGAIKEI
 10
7195.3413625284038
 20
33951.878245258442
 30
0.0
 11
7195.3413625284038
 21
33741.911993249501
 31
0.0
  0
LINE
  5
1AA
  8
HONTAIGAIKEI
 10
10383.71829249845
 20
34062.521262876253
 30
0.0
 11
10949.724310902689
 21
33886.120317650442
 31
0.0
  0
LINE
  5
1AB
  8
HONTAIGAIKEI
 10
11072.288292003141
 20
33574.406796591298
 30
0.0
 11
10949.724310902689
 21
33886.120317650442
 31
0.0
  0
LINE
  5
1AC
  8
HONTAIGAIKEI
 10
11033.20392303671
 20
33574.406796591298
 30
0.0
 11
11072.288292003141
 21
33574.406796591298
 31
0.0
  0
LINE
  5
1AD
  8
HONTAIGAIKEI
 10
10920.293441540371
 20
33842.521262876253
 30
0.0
 11
11033.20392303671
 21
33574.406796591298
 31
0.0
  0
LINE
  5
1AE
  8
HONTAIGAIKEI
 10
10395.47395792852
 20
34002.521262876253
 30
0.0
 11
10920.293441540371
 21
33842.521262876253
 31
0.0
  0
LINE
  5
1AF
  8
TLINE
 10
6521.1665553824459
 20
33842.521262876282
 30
0.0
 11
6682.4135227133411
 21
33842.521262876282
 31
0.0
  0
LINE
  5
1B0
  8
CENTER
 10
15042.12443701801
 20
33776.60303023993
 30
0.0
 11
15042.124437017979
 21
32648.466994374929
 31
0.0
  0
LINE
  5
1B1
  8
HONTAIGAIKEI
 10
20992.12443701801
 20
33356.378566908272
 30
0.0
 11
20992.124437018021
 21
33217.521262876231
 31
0.0
  0
LINE
  5
1B2
  8
HONTAIGAIKEI
 10
5069.7595254289517
 20
34748.930206262237
 30
0.0
 11
5045.487316930743
 21
34382.521262876253
 31
0.0
  0
ARC
  5
1B3
  8
HONTAIGAIKEI
 10
6563.9135191857667
 20
35401.98743038188
 30
0.0
 40
130.16957660883409
 50
18.143170264898959
 51
90.0
  0
ARC
  5
1B4
  8
HONTAIGAIKEI
 10
5556.1919591105434
 20
35401.98743038188
 30
0.0
 40
130.16957660883409
 50
90.0
 51
161.856829735101
  0
LINE
  5
1B5
  8
HONTAIGAIKEI
 10
5556.1919591105434
 20
35532.157006990717
 30
0.0
 11
6563.9135191857667
 21
35532.157006990717
 31
0.0
  0
ARC
  5
1B6
  8
TLINE
 10
4892.2150703331172
 20
33818.298340656911
 30
0.0
 40
20.0
 50
180.0
 51
270.0
  0
ARC
  5
1B7
  8
TLINE
 10
4892.2150703331172
 20
33962.705240852782
 30
0.0
 40
20.0
 50
90.0
 51
180.0
  0
ARC
  5
1B8
  8
TLINE
 10
4934.7265570588979
 20
33818.298340656911
 30
0.0
 40
20.0
 50
270.0
 51
0.0
  0
ARC
  5
1B9
  8
TLINE
 10
4934.7265570588979
 20
33962.705240852782
 30
0.0
 40
20.0
 50
0.0
 51
90.0
  0
LINE
  5
1BA
  8
TLINE
 10
4934.7265570588979
 20
33982.705240852782
 30
0.0
 11
4892.2150703331172
 21
33982.705240852782
 31
0.0
  0
LINE
  5
1BB
  8
TLINE
 10
4954.726557058897
 20
33818.298340656911
 30
0.0
 11
4954.726557058897
 21
33962.705240852782
 31
0.0
  0
LINE
  5
1BC
  8
TLINE
 10
4892.2150703331172
 20
33798.298340656911
 30
0.0
 11
4934.7265570588979
 21
33798.298340656911
 31
0.0
  0
LINE
  5
1BD
  8
TLINE
 10
4872.2150703331172
 20
33962.705240852782
 30
0.0
 11
4872.2150703331172
 21
33818.298340656911
 31
0.0
  0
ARC
  5
1BE
  8
HONTAIGAIKEI
 10
5668.8823541485217
 20
35629.572735360773
 30
0.0
 40
79.18089865264281
 50
2.1340658285665932
 51
90.0
  0
LINE
  5
1BF
  8
HONTAIGAIKEI
 10
5358.3786945535003
 20
35737.390913982788
 30
0.0
 11
5668.8823541485217
 21
35708.75363401341
 31
0.0
  0
LINE
  5
1C0
  8
HONTAIGAIKEI
 10
5410.4911865087524
 20
35632.521262876253
 30
0.0
 11
5358.3786945535003
 21
35737.390913982788
 31
0.0
  0
CIRCLE
  5
1C1
  8
TLINE
 10
6121.066948930591
 20
34548.834285550583
 30
0.0
 40
7.8711653509453754
  0
LINE
  5
1C2
  8
TLINE
 10
6120.3920263441578
 20
34533.988583838283
 30
0.0
 11
6001.2138670116728
 21
34539.406719882099
 31
0.0
  0
LINE
  5
1C3
  8
TLINE
 10
6001.2138670116728
 20
34558.261851219053
 30
0.0
 11
6120.3920263441578
 21
34563.679987262884
 31
0.0
  0
ARC
  5
1C4
  8
TLINE
 10
6121.066948930591
 20
34548.834285550583
 30
0.0
 40
14.86103562435528
 50
267.39698346733979
 51
92.603016532660163
  0
ARC
  5
1C5
  8
TLINE
 10
6001.6424676347988
 20
34548.834285550583
 30
0.0
 40
9.4373032656512805
 50
92.603016532660163
 51
267.39698346733979
  0
ARC
  5
1C6
  8
TLINE
 10
6148.5182582010202
 20
34520.444426680981
 30
0.0
 40
15.0
 50
270.0
 51
0.0
  0
ARC
  5
1C7
  8
TLINE
 10
6148.5182582010057
 20
34577.224144420179
 30
0.0
 40
15.0
 50
0.0
 51
90.0
  0
ARC
  5
1C8
  8
TLINE
 10
5978.7536645758846
 20
34520.444426680981
 30
0.0
 40
15.0
 50
180.0
 51
270.0
  0
ARC
  5
1C9
  8
TLINE
 10
5978.7536645758992
 20
34577.224144420179
 30
0.0
 40
15.0
 50
90.0
 51
180.0
  0
LINE
  5
1CA
  8
TLINE
 10
5963.7536645758846
 20
34520.444426680981
 30
0.0
 11
5963.7536645758992
 21
34577.224144420179
 31
0.0
  0
LINE
  5
1CB
  8
TLINE
 10
6148.5182582010202
 20
34505.444426680981
 30
0.0
 11
5978.7536645758846
 21
34505.444426680981
 31
0.0
  0
LINE
  5
1CC
  8
TLINE
 10
6163.5182582010057
 20
34577.224144420179
 30
0.0
 11
6163.5182582010202
 21
34520.444426680981
 31
0.0
  0
LINE
  5
1CD
  8
TLINE
 10
5978.7536645758992
 20
34592.224144420179
 30
0.0
 11
6148.5182582010057
 21
34592.224144420179
 31
0.0
  0
ARC
  5
1CE
  8
HONTAIGAIKEI
 10
5280.8253361523712
 20
34412.52126287626
 30
0.0
 40
30.0
 50
270.0
 51
0.0
  0
ARC
  5
1CF
  8
HONTAIGAIKEI
 10
5679.5566572514545
 20
34412.52126287626
 30
0.0
 40
30.0
 50
180.0
 51
270.0
  0
ARC
  5
1D0
  8
HONTAIGAIKEI
 10
5619.5566572514545
 20
34675.037755077392
 30
0.0
 40
30.0
 50
0.0
 51
90.0
  0
ARC
  5
1D1
  8
HONTAIGAIKEI
 10
5340.8253361523712
 20
34675.037755077392
 30
0.0
 40
30.0
 50
90.0
 51
180.0
  0
ARC
  5
1D2
  8
TLINE
 10
5592.6436215515023
 20
34645.98688209473
 30
0.0
 40
20.0
 50
0.0
 51
90.0
  0
ARC
  5
1D3
  8
TLINE
 10
5363.3956641893928
 20
34645.98688209473
 30
0.0
 40
20.0
 50
90.0
 51
180.0
  0
ARC
  5
1D4
  8
TLINE
 10
5592.6436215515023
 20
34182.66456401482
 30
0.0
 40
20.0
 50
270.0
 51
0.0
  0
ARC
  5
1D5
  8
TLINE
 10
5363.3956641893928
 20
34182.66456401482
 30
0.0
 40
20.0
 50
180.0
 51
270.0
  0
LINE
  5
1D6
  8
HONTAIGAIKEI
 10
5310.8253361523721
 20
34675.037755077392
 30
0.0
 11
5310.8253361523721
 21
34412.52126287626
 31
0.0
  0
LINE
  5
1D7
  8
HONTAIGAIKEI
 10
5619.5566572514545
 20
34705.037755077392
 30
0.0
 11
5340.8253361523712
 21
34705.037755077392
 31
0.0
  0
LINE
  5
1D8
  8
HONTAIGAIKEI
 10
5649.5566572514554
 20
34412.52126287626
 30
0.0
 11
5649.5566572514554
 21
34675.037755077392
 31
0.0
  0
LINE
  5
1D9
  8
HONTAIGAIKEI
 10
5679.5566572514545
 20
34382.521262876253
 30
0.0
 11
6817.1244370179957
 21
34382.521262876253
 31
0.0
  0
LINE
  5
1DA
  8
HONTAIGAIKEI
 10
5679.5566572514545
 20
34382.521262876253
 30
0.0
 11
6817.1244370179957
 21
34382.521262876253
 31
0.0
  0
LINE
  5
1DB
  8
TLINE
 10
5363.3956641893928
 20
34665.98688209473
 30
0.0
 11
5592.6436215515023
 21
34665.98688209473
 31
0.0
  0
LINE
  5
1DC
  8
TLINE
 10
5343.3956641893928
 20
34182.66456401482
 30
0.0
 11
5343.3956641893928
 21
34645.98688209473
 31
0.0
  0
LINE
  5
1DD
  8
TLINE
 10
5592.6436215515023
 20
34162.66456401482
 30
0.0
 11
5363.3956641893928
 21
34162.66456401482
 31
0.0
  0
LINE
  5
1DE
  8
TLINE
 10
5612.6436215515023
 20
34645.98688209473
 30
0.0
 11
5612.6436215515023
 21
34182.66456401482
 31
0.0
  0
LINE
  5
1DF
  8
HONTAIGAIKEI
 10
6766.9383208481186
 20
34051.586529789383
 30
0.0
 11
6766.9383208481186
 21
34082.521262876253
 31
0.0
  0
LINE
  5
1E0
  8
HONTAIGAIKEI
 10
5636.9374697665953
 20
34082.521262876253
 30
0.0
 11
5636.9374697665953
 21
34051.586529789383
 31
0.0
  0
LINE
  5
1E1
  8
HONTAIGAIKEI
 10
5636.9374697665808
 20
34051.586529789383
 30
0.0
 11
6766.9383208481186
 21
34051.586529789383
 31
0.0
  0
LINE
  5
1E2
  8
HONTAIGAIKEI
 10
6137.644416582848
 20
34891.831061665027
 30
0.0
 11
6200.2148268798082
 21
34812.521262876253
 31
0.0
  0
LINE
  5
1E3
  8
HONTAIGAIKEI
 10
6200.2148268798082
 20
34812.521262876282
 30
0.0
 11
6200.2148268797928
 21
34262.521262876253
 31
0.0
  0
LINE
  5
1E4
  8
HONTAIGAIKEI
 10
6043.8772687541086
 20
34262.521262876253
 30
0.0
 11
6817.1244370179957
 21
34262.521262876216
 31
0.0
  0
ARC
  5
1E5
  8
HONTAIGAIKEI
 10
6043.877268754095
 20
33712.521262876253
 30
0.0
 40
550.0
 50
90.0
 51
137.72209240099809
  0
ARC
  5
1E6
  8
TLINE
 10
6682.9013421990558
 20
34921.831061665027
 30
0.0
 40
30.0
 50
270.0
 51
7.056239347609865
  0
ARC
  5
1E7
  8
TLINE
 10
6627.489359902208
 20
35369.492365631922
 30
0.0
 40
30.0
 50
7.056239347609865
 51
90.0
  0
ARC
  5
1E8
  8
TLINE
 10
6286.6700264979918
 20
34921.831061665027
 30
0.0
 40
30.0
 50
180.0
 51
270.0
  0
ARC
  5
1E9
  8
TLINE
 10
6286.6700264979918
 20
35369.492365631922
 30
0.0
 40
30.0
 50
90.0
 51
180.0
  0
LINE
  5
1EA
  8
TLINE
 10
6657.2621414390924
 20
35373.177671529091
 30
0.0
 11
6712.6741237359429
 21
34925.516367562203
 31
0.0
  0
LINE
  5
1EB
  8
TLINE
 10
6256.6700264979918
 20
35369.492365631922
 30
0.0
 11
6256.6700264979918
 21
34921.831061665027
 31
0.0
  0
LINE
  5
1EC
  8
TLINE
 10
6286.6700264979918
 20
34891.831061665027
 30
0.0
 11
6682.9013421990558
 21
34891.831061665027
 31
0.0
  0
LINE
  5
1ED
  8
TLINE
 10
6286.6700264979918
 20
35399.492365631922
 30
0.0
 11
6627.489359902208
 21
35399.492365631922
 31
0.0
  0
ARC
  5
1EE
  8
TLINE
 10
6137.644416582848
 20
34921.831061665027
 30
0.0
 40
30.0
 50
270.0
 51
0.0
  0
ARC
  5
1EF
  8
TLINE
 10
5719.946450269741
 20
34921.831061665027
 30
0.0
 40
30.0
 50
180.0
 51
270.0
  0
ARC
  5
1F0
  8
TLINE
 10
6137.644416582848
 20
35368.19059369294
 30
0.0
 40
30.0
 50
0.0
 51
90.0
  0
ARC
  5
1F1
  8
TLINE
 10
5719.946450269741
 20
35368.19059369294
 30
0.0
 40
30.0
 50
90.0
 51
180.0
  0
LINE
  5
1F2
  8
TLINE
 10
5719.946450269741
 20
34891.831061665027
 30
0.0
 11
6137.644416582848
 21
34891.831061665027
 31
0.0
  0
ARC
  5
1F3
  8
TLINE
 10
5618.6907069068438
 20
34871.557213023283
 30
0.0
 40
30.0
 50
272.38730710190129
 51
0.0
  0
ARC
  5
1F4
  8
TLINE
 10
5618.6907069068438
 20
35368.19059369294
 30
0.0
 40
30.0
 50
0.0
 51
90.0
  0
ARC
  5
1F5
  8
HONTAIGAIKEI
 10
5429.5368293823594
 20
35392.521262876253
 30
0.0
 40
50.0
 50
90.0
 51
167.4730948177413
  0
ARC
  5
1F6
  8
HONTAIGAIKEI
 10
5221.7802036114044
 20
34826.306720647211
 30
0.0
 40
30.0
 50
265.44355033999119
 51
347.47309481774141
  0
LINE
  5
1F7
  8
HONTAIGAIKEI
 10
5017.1244370179948
 20
34812.521262876253
 30
0.0
 11
5219.3969660280463
 21
34796.401534163568
 31
0.0
  0
ARC
  5
1F8
  8
TLINE
 10
5324.4694251519868
 20
34859.290981242149
 30
0.0
 40
30.0
 50
166.9558398517201
 51
272.38730710190129
  0
ARC
  5
1F9
  8
TLINE
 10
5458.2675050813159
 20
35348.19059369294
 30
0.0
 40
50.0
 50
90.0
 51
166.9558398517201
  0
LINE
  5
1FA
  8
TLINE
 10
5719.946450269741
 20
35398.19059369294
 30
0.0
 11
6137.644416582848
 21
35398.19059369294
 31
0.0
  0
LINE
  5
1FB
  8
TLINE
 10
5648.6907069068438
 20
35368.19059369294
 30
0.0
 11
5648.6907069068438
 21
34871.557213023283
 31
0.0
  0
LINE
  5
1FC
  8
TLINE
 10
5325.7190545767853
 20
34829.317018769681
 30
0.0
 11
5619.940336331656
 21
34841.583250550793
 31
0.0
  0
LINE
  5
1FD
  8
TLINE
 10
5409.5576852503191
 20
35359.475692364707
 30
0.0
 11
5295.2435332533678
 21
34866.06204044522
 31
0.0
  0
LINE
  5
1FE
  8
TLINE
 10
6167.644416582847
 20
35368.19059369294
 30
0.0
 11
6167.644416582847
 21
34921.831061665027
 31
0.0
  0
LINE
  5
1FF
  8
TLINE
 10
5689.946450269741
 20
35368.19059369294
 30
0.0
 11
5689.946450269741
 21
34921.831061665027
 31
0.0
  0
LINE
  5
200
  8
TLINE
 10
5458.2675050813159
 20
35398.19059369294
 30
0.0
 11
5618.6907069068438
 21
35398.19059369294
 31
0.0
  0
LINE
  5
201
  8
HONTAIGAIKEI
 10
5380.7271162373254
 20
35403.366165028892
 30
0.0
 11
5251.0660314984161
 21
34819.799779355642
 31
0.0
  0
LINE
  5
202
  8
HONTAIGAIKEI
 10
5242.0876749462795
 20
34759.212796461332
 30
0.0
 11
5242.0876749462795
 21
34082.521262876253
 31
0.0
  0
LINE
  5
203
  8
HONTAIGAIKEI
 10
4896.1463733357559
 20
34262.521262876253
 30
0.0
 11
4896.1463733357559
 21
34131.961238408781
 31
0.0
  0
LINE
  5
204
  8
HONTAIGAIKEI
 10
4869.4901295753116
 20
34320.211015005189
 30
0.0
 11
4896.1463733357559
 21
34262.521262876253
 31
0.0
  0
LINE
  5
205
  8
HONTAIGAIKEI
 10
4923.4583215463244
 20
34716.102110839303
 30
0.0
 11
4867.8514788631037
 21
34331.461631996986
 31
0.0
  0
LINE
  5
206
  8
HONTAIGAIKEI
 10
4896.1463733357559
 20
34262.521262876253
 30
0.0
 11
4965.5816445492128
 21
34262.521262876253
 31
0.0
  0
ARC
  5
207
  8
HONTAIGAIKEI
 10
4896.1463733357559
 20
34062.521262876253
 30
0.0
 40
20.0
 50
90.0
 51
180.0
  0
LINE
  5
208
  8
HONTAIGAIKEI
 10
4856.1463733357714
 20
33992.521262876253
 30
0.0
 11
4856.1463733357714
 21
33776.318531220139
 31
0.0
  0
LINE
  5
209
  8
HONTAIGAIKEI
 10
4876.1463733357559
 20
34062.521262876253
 30
0.0
 11
4876.1463733357714
 21
34012.52126287626
 31
0.0
  0
LINE
  5
20A
  8
HONTAIGAIKEI
 10
5017.1244370179948
 20
34812.521262876253
 30
0.0
 11
4923.4583215463244
 21
34716.102110839303
 31
0.0
  0
LINE
  5
20B
  8
HONTAIGAIKEI
 10
5632.7192967063929
 20
34782.521262876282
 30
0.0
 11
4948.3092215626266
 21
34741.683429065859
 31
0.0
  0
LINE
  5
20C
  8
HONTAIGAIKEI
 10
5632.7192967063929
 20
34812.521262876253
 30
0.0
 11
4981.4085542481234
 21
34775.755618079507
 31
0.0
  0
LINE
  5
20D
  8
HONTAIGAIKEI
 10
5444.0589192266089
 20
33714.41989704821
 30
0.0
 11
5413.098785344966
 21
33412.521262876282
 31
0.0
  0
ARC
  5
20E
  8
HONTAIGAIKEI
 10
5444.0589192266089
 20
33814.41989704821
 30
0.0
 40
100.0
 50
270.0
 51
320.54268390391019
  0
ARC
  5
20F
  8
HONTAIGAIKEI
 10
5878.2563800825919
 20
33712.521262876253
 30
0.0
 40
300.0
 50
90.0
 51
140.54268390391019
  0
LINE
  5
210
  8
HONTAIGAIKEI
 10
5646.6269106689178
 20
33903.17222379474
 30
0.0
 11
5521.2687423645002
 21
33750.869576742029
 31
0.0
  0
LINE
  5
211
  8
HONTAIGAIKEI
 10
4861.6354051768903
 20
33714.41989704821
 30
0.0
 11
5444.0589192266089
 21
33714.41989704821
 31
0.0
  0
LINE
  5
212
  8
HONTAIGAIKEI
 10
4876.1463733357714
 20
33756.318531220139
 30
0.0
 11
4847.1244370179957
 21
33672.521262876253
 31
0.0
  0
LINE
  5
213
  8
HONTAIGAIKEI
 10
6817.1244370179957
 20
34012.52126287626
 30
0.0
 11
5878.2563800825919
 21
34012.52126287626
 31
0.0
  0
ARC
  5
214
  8
HONTAIGAIKEI
 10
5105.3943306978799
 20
33776.318531220139
 30
0.0
 40
20.0
 50
270.0
 51
0.0
  0
ARC
  5
215
  8
HONTAIGAIKEI
 10
5105.3943306978799
 20
33992.521262876282
 30
0.0
 40
20.0
 50
0.0
 51
90.0
  0
ARC
  5
216
  8
HONTAIGAIKEI
 10
4876.1463733357714
 20
33776.318531220139
 30
0.0
 40
20.0
 50
180.0
 51
270.0
  0
ARC
  5
217
  8
HONTAIGAIKEI
 10
4876.1463733357714
 20
33992.521262876253
 30
0.0
 40
20.0
 50
90.0
 51
180.0
  0
LINE
  5
218
  8
HONTAIGAIKEI
 10
4876.1463733357714
 20
33756.318531220139
 30
0.0
 11
5105.3943306978799
 21
33756.318531220139
 31
0.0
  0
LINE
  5
219
  8
HONTAIGAIKEI
 10
5125.394330697879
 20
33992.521262876282
 30
0.0
 11
5125.394330697879
 21
33776.318531220139
 31
0.0
  0
LINE
  5
21A
  8
HONTAIGAIKEI
 10
4875.2330858908144
 20
34382.521262876253
 30
0.0
 11
5280.8253361523712
 21
34382.521262876253
 31
0.0
  0
LINE
  5
21B
  8
HONTAIGAIKEI
 10
4896.1463733357559
 20
34082.521262876253
 30
0.0
 11
6817.1244370179957
 21
34082.521262876253
 31
0.0
  0
LINE
  5
21C
  8
HONTAIGAIKEI
 10
4876.1463733357714
 20
34012.52126287626
 30
0.0
 11
5105.3943306978799
 21
34012.521262876282
 31
0.0
  0
LINE
  5
21D
  8
HONTAIGAIKEI
 10
5035.7159470618526
 20
33442.521262876253
 30
0.0
 11
5072.6289827618057
 21
33412.52126287626
 31
0.0
  0
ARC
  5
21E
  8
HONTAIGAIKEI
 10
5067.1244370179948
 20
33462.521262876253
 30
0.0
 40
20.0
 50
270.0
 51
0.0
  0
ARC
  5
21F
  8
HONTAIGAIKEI
 10
5067.1244370179948
 20
33652.52126287626
 30
0.0
 40
20.0
 50
0.0
 51
90.0
  0
ARC
  5
220
  8
HONTAIGAIKEI
 10
4847.1244370179957
 20
33472.521262876253
 30
0.0
 40
30.0
 50
180.0
 51
270.0
  0
ARC
  5
221
  8
HONTAIGAIKEI
 10
4847.1244370179957
 20
33642.521262876253
 30
0.0
 40
30.0
 50
90.0
 51
180.0
  0
LINE
  5
222
  8
HONTAIGAIKEI
 10
4847.1244370179957
 20
33672.521262876253
 30
0.0
 11
5067.1244370179948
 21
33672.521262876253
 31
0.0
  0
LINE
  5
223
  8
HONTAIGAIKEI
 10
4847.1244370179957
 20
33442.521262876253
 30
0.0
 11
5067.1244370179948
 21
33442.521262876253
 31
0.0
  0
LINE
  5
224
  8
HONTAIGAIKEI
 10
5087.1244370179957
 20
33652.52126287626
 30
0.0
 11
5087.1244370179957
 21
33462.521262876253
 31
0.0
  0
ARC
  5
225
  8
HONTAIGAIKEI
 10
5358.0610878678744
 20
35512.521262876253
 30
0.0
 40
120.0
 50
90.0
 51
162.89727103060491
  0
LINE
  5
226
  8
HONTAIGAIKEI
 10
5228.0370129546391
 20
35497.987134670337
 30
0.0
 11
5406.2179748492381
 21
35436.750563382411
 31
0.0
  0
LINE
  5
227
  8
HONTAIGAIKEI
 10
4875.2330858908144
 20
34382.521262876253
 30
0.0
 11
5280.8253361523712
 21
34382.521262876253
 31
0.0
  0
LINE
  5
228
  8
HONTAIGAIKEI
 10
5632.7192967063929
 20
34782.521262876282
 30
0.0
 11
6852.1244370179948
 21
34782.521262876282
 31
0.0
  0
LINE
  5
229
  8
HONTAIGAIKEI
 10
6817.1244370179957
 20
34782.521262876282
 30
0.0
 11
6817.1244370179957
 21
34012.52126287626
 31
0.0
  0
LINE
  5
22A
  8
HONTAIGAIKEI
 10
5429.5368293823594
 20
35442.521262876253
 30
0.0
 11
6737.1244370179948
 21
35442.521262876282
 31
0.0
  0
LINE
  5
22B
  8
HONTAIGAIKEI
 10
5632.7192967063929
 20
34812.521262876253
 30
0.0
 11
6852.1244370179948
 21
34812.521262876282
 31
0.0
  0
LINE
  5
22C
  8
HONTAIGAIKEI
 10
5072.6289827618057
 20
33412.52126287626
 30
0.0
 11
5413.098785344966
 21
33412.521262876282
 31
0.0
  0
LINE
  5
22D
  8
HONTAIGAIKEI
 10
5243.3676068212553
 20
35547.811564736767
 30
0.0
 11
5017.1244370179948
 21
34812.521262876253
 31
0.0
  0
LINE
  5
22E
  8
HONTAIGAIKEI
 10
7117.1244370179957
 20
34002.521262876253
 30
0.0
 11
7117.1244370179957
 21
33632.521262876282
 31
0.0
  0
LINE
  5
22F
  8
HONTAIGAIKEI
 10
7157.1244370179948
 20
33512.521262876253
 30
0.0
 11
7157.1244370179948
 21
33402.521262876282
 31
0.0
  0
LINE
  5
230
  8
HONTAIGAIKEI
 10
7117.1244370179957
 20
33512.521262876253
 30
0.0
 11
7117.1244370179957
 21
33402.521262876282
 31
0.0
  0
LINE
  5
231
  8
HONTAIGAIKEI
 10
7157.1244370179948
 20
34002.521262876253
 30
0.0
 11
7157.1244370179948
 21
33632.521262876282
 31
0.0
  0
ARC
  5
232
  8
TLINE
 10
6817.1244370179957
 20
33612.52126287626
 30
0.0
 40
20.0
 50
90.0
 51
270.0
  0
ARC
  5
233
  8
TLINE
 10
6817.1244370179957
 20
33572.52126287626
 30
0.0
 40
20.0
 50
90.0
 51
270.0
  0
ARC
  5
234
  8
TLINE
 10
6817.1244370179957
 20
33532.52126287626
 30
0.0
 40
20.0
 50
90.0
 51
270.0
  0
ARC
  5
235
  8
TLINE
 10
6817.1244370179957
 20
33382.521262876289
 30
0.0
 40
20.0
 50
90.0
 51
270.0
  0
ARC
  5
236
  8
TLINE
 10
6817.1244370179957
 20
33342.521262876253
 30
0.0
 40
20.0
 50
90.0
 51
270.0
  0
ARC
  5
237
  8
TLINE
 10
6817.1244370179957
 20
33302.521262876289
 30
0.0
 40
20.0
 50
90.0
 51
270.0
  0
LINE
  5
238
  8
TLINE
 10
6817.1244370179957
 20
33632.521262876282
 30
0.0
 11
8467.1244370179957
 21
33632.521262876253
 31
0.0
  0
LINE
  5
239
  8
TLINE
 10
6817.1244370179957
 20
33592.521262876253
 30
0.0
 11
8467.1244370179957
 21
33592.521262876253
 31
0.0
  0
LINE
  5
23A
  8
TLINE
 10
6817.1244370179957
 20
33552.521262876253
 30
0.0
 11
8467.1244370179957
 21
33552.521262876253
 31
0.0
  0
LINE
  5
23B
  8
TLINE
 10
6817.1244370179957
 20
33512.521262876253
 30
0.0
 11
8467.1244370179957
 21
33512.521262876253
 31
0.0
  0
LINE
  5
23C
  8
TLINE
 10
6817.1244370179957
 20
33402.521262876282
 30
0.0
 11
8467.1244370179957
 21
33402.521262876282
 31
0.0
  0
LINE
  5
23D
  8
TLINE
 10
6817.1244370179957
 20
33362.521262876253
 30
0.0
 11
8467.1244370179957
 21
33362.521262876253
 31
0.0
  0
LINE
  5
23E
  8
TLINE
 10
6817.1244370179957
 20
33322.521262876253
 30
0.0
 11
8467.1244370179957
 21
33322.521262876253
 31
0.0
  0
LINE
  5
23F
  8
TLINE
 10
6708.76904557941
 20
33282.521262876282
 30
0.0
 11
8517.1244370179957
 21
33282.521262876282
 31
0.0
  0
LINE
  5
240
  8
HONTAIGAIKEI
 10
8467.1244370179957
 20
34002.521262876253
 30
0.0
 11
8467.1244370179957
 21
33282.521262876282
 31
0.0
  0
LINE
  5
241
  8
HONTAIGAIKEI
 10
8517.1244370179957
 20
34002.521262876253
 30
0.0
 11
8517.1244370179957
 21
33282.521262876282
 31
0.0
  0
ARC
  5
242
  8
HONTAIGAIKEI
 10
7117.1244370179957
 20
34032.521262876253
 30
0.0
 40
30.0
 50
90.0
 51
270.0
  0
LINE
  5
243
  8
HONTAIGAIKEI
 10
6817.1244370180102
 20
34782.521262876282
 30
0.0
 11
6817.1244370179957
 21
34062.521262876253
 31
0.0
  0
LINE
  5
244
  8
HONTAIGAIKEI
 10
5358.0610878678744
 20
35632.521262876253
 30
0.0
 11
6594.0651210137767
 21
35632.521262876253
 31
0.0
  0
LINE
  5
245
  8
HONTAIGAIKEI
 10
7117.1244370179957
 20
35712.52126287626
 30
0.0
 11
7217.1244370179957
 21
35712.52126287626
 31
0.0
  0
LINE
  5
246
  8
HONTAIGAIKEI
 10
7117.1244370179957
 20
35712.52126287626
 30
0.0
 11
7117.1244370179957
 21
34062.521262876253
 31
0.0
  0
LINE
  5
247
  8
HONTAIGAIKEI
 10
7217.1244370179957
 20
35712.52126287626
 30
0.0
 11
7217.1244370179957
 21
34062.521262876282
 31
0.0
  0
LINE
  5
248
  8
HONTAIGAIKEI
 10
7117.1244370179957
 20
34002.521262876253
 30
0.0
 11
10395.47395792852
 21
34002.521262876253
 31
0.0
  0
LINE
  5
249
  8
HONTAIGAIKEI
 10
7117.1244370179957
 20
34062.521262876253
 30
0.0
 11
10383.71829249845
 21
34062.521262876253
 31
0.0
  0
LINE
  5
24A
  8
CENTER
 10
9492.1244370179975
 20
34773.918741917063
 30
0.0
 11
9492.1244370179975
 21
32648.4669943749
 31
0.0
  0
LINE
  5
24B
  8
CENTER
 10
9767.1244370179975
 20
34069.586187666049
 30
0.0
 11
9767.1244370179975
 21
32698.4669943749
 31
0.0
  0
LINE
  5
24C
  8
CENTER
 10
19242.124437018021
 20
33776.603030239901
 30
0.0
 11
19242.124437017988
 21
32648.4669943749
 31
0.0
  0
LINE
  5
24D
  8
HONTAIGAIKEI
 10
19172.124437018021
 20
33662.521262876253
 30
0.0
 11
19312.124437018021
 21
33662.521262876253
 31
0.0
  0
LINE
  5
24E
  8
HONTAIGAIKEI
 10
20339.982156481488
 20
33356.378566908243
 30
0.0
 11
20657.283844921221
 21
33356.378566908272
 31
0.0
  0
LINE
  5
24F
  8
HONTAIGAIKEI
 10
20892.124437018039
 20
33465.50437732655
 30
0.0
 11
20992.12443701801
 21
33356.378566908272
 31
0.0
  0
LINE
  5
250
  8
HONTAIGAIKEI
 10
20892.12443701805
 20
33217.521262876231
 30
0.0
 11
20992.124437018021
 21
33217.521262876231
 31
0.0
  0
LINE
  5
251
  8
HONTAIGAIKEI
 10
20657.283844921221
 20
33309.300928190292
 30
0.0
 11
20892.124437018039
 21
33222.521262876253
 31
0.0
  0
LINE
  5
252
  8
HONTAIGAIKEI
 10
20657.283844921221
 20
33557.113219692779
 30
0.0
 11
20657.283844921221
 21
33309.300928190292
 31
0.0
  0
LINE
  5
253
  8
HONTAIGAIKEI
 10
20892.12443701801
 20
33486.378566908272
 30
0.0
 11
20892.12443701801
 21
33217.521262876231
 31
0.0
  0
LINE
  5
254
  8
HONTAIGAIKEI
 10
18927.534633643001
 20
33012.521262876282
 30
0.0
 11
19556.714240393041
 21
33012.521262876253
 31
0.0
  0
LINE
  5
255
  8
HONTAIGAIKEI
 10
19025.82940586203
 20
33432.521262876253
 30
0.0
 11
19152.124437017988
 21
33432.521262876253
 31
0.0
  0
ARC
  5
256
  8
HONTAIGAIKEI
 10
11150.574971234661
 20
33902.035526242689
 30
0.0
 40
280.0
 50
7.8533133021248966
 51
85.486011541850388
  0
LINE
  5
257
  8
HONTAIGAIKEI
 10
11427.948887422839
 20
33940.29399744104
 30
0.0
 11
11511.224414929489
 21
33336.546423017811
 31
0.0
  0
LINE
  5
258
  8
HONTAIGAIKEI
 10
10242.12443701799
 20
34262.521262876253
 30
0.0
 11
11172.61166715226
 21
34181.167007865653
 31
0.0
  0
LINE
  5
259
  8
HONTAIGAIKEI
 10
11368.491726925249
 20
33312.521262876282
 30
0.0
 11
18042.124437017981
 21
33312.521262876253
 31
0.0
  0
LINE
  5
25A
  8
HONTAIGAIKEI
 10
9042.1244370179957
 20
34527.521262876216
 30
0.0
 11
9042.1244370179793
 21
34502.521262876216
 31
0.0
  0
LINE
  5
25B
  8
HONTAIGAIKEI
 10
12042.12443701799
 20
34108.027041964851
 30
0.0
 11
12042.124437017979
 21
33312.521262876282
 31
0.0
  0
LINE
  5
25C
  8
HONTAIGAIKEI
 10
18042.124437017988
 20
33442.521262876282
 30
0.0
 11
18042.12443701801
 21
33312.521262876253
 31
0.0
  0
LINE
  5
25D
  8
HONTAIGAIKEI
 10
9042.1244370179957
 20
34527.521262876216
 30
0.0
 11
11622.63021610658
 21
34527.521262876216
 31
0.0
  0
LINE
  5
25E
  8
HONTAIGAIKEI
 10
9042.1244370179957
 20
34262.521262876253
 30
0.0
 11
10242.12443701799
 21
34262.521262876253
 31
0.0
  0
LINE
  5
25F
  8
HONTAIGAIKEI
 10
11542.124437017979
 20
33112.521262876282
 30
0.0
 11
18042.124437017988
 21
33112.521262876231
 31
0.0
  0
LINE
  5
260
  8
CENTER
 10
19134.41905398935
 20
33312.521262876253
 30
0.0
 11
18049.829820046642
 21
33312.521262876253
 31
0.0
  0
LINE
  5
261
  8
CENTER
 10
9774.8298200466415
 20
33412.52126287626
 30
0.0
 11
11059.41905398935
 21
33412.52126287626
 31
0.0
  0
LINE
  5
262
  8
CENTER
 10
8474.8298200466415
 20
33412.52126287626
 30
0.0
 11
9759.4190539893516
 21
33412.52126287626
 31
0.0
  0
LINE
  5
263
  8
CENTER
 10
5374.8298200466561
 20
33412.52126287626
 30
0.0
 11
6659.4190539893643
 21
33412.52126287626
 31
0.0
  0
CIRCLE
  5
264
  8
TLINE
 10
18592.124437017988
 20
33312.521262876253
 30
0.0
 40
190.0
  0
CIRCLE
  5
265
  8
TLINE
 10
18592.124437017988
 20
33312.521262876253
 30
0.0
 40
225.0
  0
CIRCLE
  5
266
  8
HONTAIGAIKEI
 10
18592.124437017988
 20
33312.521262876253
 30
0.0
 40
450.0
  0
CIRCLE
  5
267
  8
HONTAIGAIKEI
 10
10417.12443701799
 20
33412.52126287626
 30
0.0
 40
550.0
  0
CIRCLE
  5
268
  8
TLINE
 10
10417.12443701799
 20
33412.52126287626
 30
0.0
 40
325.0
  0
CIRCLE
  5
269
  8
TLINE
 10
10417.12443701799
 20
33412.52126287626
 30
0.0
 40
290.0
  0
CIRCLE
  5
26A
  8
HONTAIGAIKEI
 10
9117.1244370179975
 20
33412.52126287626
 30
0.0
 40
550.0
  0
CIRCLE
  5
26B
  8
TLINE
 10
9117.1244370179975
 20
33412.52126287626
 30
0.0
 40
325.0
  0
CIRCLE
  5
26C
  8
TLINE
 10
9117.1244370179975
 20
33412.52126287626
 30
0.0
 40
290.0
  0
CIRCLE
  5
26D
  8
TLINE
 10
6017.1244370180111
 20
33412.52126287626
 30
0.0
 40
290.0
  0
CIRCLE
  5
26E
  8
TLINE
 10
6017.1244370180111
 20
33412.52126287626
 30
0.0
 40
325.0
  0
CIRCLE
  5
26F
  8
HONTAIGAIKEI
 10
6017.1244370180111
 20
33412.52126287626
 30
0.0
 40
550.0
  0
LINE
  5
270
  8
CENTER
 10
18592.12443701801
 20
33854.815879847607
 30
0.0
 11
18592.124437017981
 21
32770.226645904899
 31
0.0
  0
LINE
  5
271
  8
HONTAIGAIKEI
 10
4817.1244370179948
 20
33642.521262876253
 30
0.0
 11
4817.1244370179948
 21
33472.521262876253
 31
0.0
  0
LINE
  5
272
  8
CENTER
 10
10417.12443701799
 20
34054.815879847607
 30
0.0
 11
10417.12443701799
 21
32770.226645904899
 31
0.0
  0
LINE
  5
273
  8
CENTER
 10
9117.1244370179975
 20
34054.815879847607
 30
0.0
 11
9117.1244370179975
 21
32770.226645904899
 31
0.0
  0
LINE
  5
274
  8
CENTER
 10
6017.1244370180111
 20
34054.815879847607
 30
0.0
 11
6017.1244370180111
 21
32770.226645904899
 31
0.0
  0
LINE
  5
275
  8
DOUSEN
 62
     3
 10
4276.4467267780847
 20
32862.521262876253
 30
0.0
 11
21449.179829818051
 21
32862.521262876253
 31
0.0
  0
LINE
  5
277
  8
HONTAIGAIKEI
 10
12042.124437017979
 20
33442.521262876282
 30
0.0
 11
18042.124437017981
 21
33442.521262876282
 31
0.0
  0
LINE
  5
278
  8
HONTAIGAIKEI
 10
18592.12443701801
 20
33772.521262876282
 30
0.0
 11
19892.124437018021
 21
33772.521262876311
 31
0.0
  0
LINE
  5
279
  8
HONTAIGAIKEI
 10
9233.5690449740832
 20
33958.731248694588
 30
0.0
 11
10008.880854666389
 21
33958.731248694588
 31
0.0
  0
CIRCLE
  5
27A
  8
HONTAIGAIKEI
 10
19892.124437017988
 20
33312.521262876253
 30
0.0
 40
450.0
  0
LINE
  5
27B
  8
CENTER
 10
19892.12443701801
 20
33854.815879847607
 30
0.0
 11
19892.124437017981
 21
32770.226645904899
 31
0.0
  0
LINE
  5
27C
  8
CENTER
 10
20434.41905398935
 20
33312.521262876253
 30
0.0
 11
19349.829820046642
 21
33312.521262876253
 31
0.0
  0
CIRCLE
  5
27D
  8
TLINE
 10
19892.124437017988
 20
33312.521262876253
 30
0.0
 40
225.0
  0
CIRCLE
  5
27E
  8
TLINE
 10
19892.124437017988
 20
33312.521262876253
 30
0.0
 40
190.0
  0
LINE
  5
27F
  8
HONTAIGAIKEI
 10
18924.779955325441
 20
33615.572918769438
 30
0.0
 11
19152.124437018021
 21
33615.572918769438
 31
0.0
  0
LINE
  5
280
  8
HONTAIGAIKEI
 10
20892.12443701801
 20
33486.378566908272
 30
0.0
 11
20107.432612187251
 21
33707.669829500614
 31
0.0
  0
LINE
  5
281
  8
HONTAIGAIKEI
 10
19930.87395829555
 20
33760.84979710172
 30
0.0
 11
19892.124437018021
 21
33772.521262876282
 31
0.0
  0
LINE
  5
282
  8
HONTAIGAIKEI
 10
18592.124437018021
 20
33772.521262876282
 30
0.0
 11
18574.908715552028
 21
33762.191829996678
 31
0.0
  0
LINE
  5
283
  8
HONTAIGAIKEI
 10
18203.457805542788
 20
33539.321283991128
 30
0.0
 11
18042.124437017988
 21
33442.521262876282
 31
0.0
  0
LINE
  5
284
  8
HONTAIGAIKEI
 10
18160.926677639
 20
33183.802607248799
 30
0.0
 11
18042.124437017988
 21
33112.521262876231
 31
0.0
  0
LINE
  5
285
  8
TLINE
 10
9398.7349839258113
 20
34117.547482647882
 30
0.0
 11
9398.7349839258113
 21
34062.521262876253
 31
0.0
  0
LINE
  5
286
  8
TLINE
 10
9585.5138901102073
 20
34117.547482647882
 30
0.0
 11
9585.5138901102073
 21
34062.521262876253
 31
0.0
  0
LINE
  5
287
  8
HONTAIGAIKEI
 10
19332.124437018021
 20
33615.572918769438
 30
0.0
 11
19559.468918710529
 21
33615.572918769409
 31
0.0
  0
ENDSEC
  0
EOF
